3 Doors Down

Here Without You (Versão 2)

3 Doors Down

4.414 exibições
Tom: Bbm 

Por: Everton Rebelo Figueiredo (evertonf@brturbo.com)

            Bbm            F#         G#
e|-------------------------------------------------|
b|-------2---1---1h2-1-----------------------------|
g|-----3---3---3-------3-----------------------5---
d|---3-------------------3--------4------6---6---6-|
a|-1--------------------------4-----4------6-------|
E|--------------------------2---2------4-----------|

           Bbm                     G#
e|----------------------------------------------------|
b|-------2---1---1h2-1--------------------------------|
g|-----3---3---3-------3------------5-----5---5---5/8-
d|---3-------------------3----6---6---6---------------|
a|-1----------------------------6-------6---6---------|
E|--------------------------4-------------------------|

           C#                      G#   
e|---------------------------------------4-------
b|-------7----6----4--4-6-4----------4-----7-6-4-
g|-----6--------------------6-5----5---5--------
d|---6-----6----6----------------6---------------
a|-4---------------------------------------------
E|-----------------------------------------------

          Bbm            F#         G#
e-----------------------------------------------|
b-------2---1-1h2-1-----------------------------|
g-----3---3---------3-----------------------5---|
d---3-----------------3--------4------6---6---6-|
a-1------------------------4-----4------6-------|
E------------------------2---2------4-----------|
 
          Bbm                                     
A hundred days have made me older Since 
    G#                                Bbm    F#  G#
the last time that I saw your  pretty face,
            Bbm 
A thousand lies have made me colder, 
    G#                                     Bbm   F#  G#
And I don't think I can look at this the same
Bbm                            G#
  An all the miles that separate,
Bbm                               F#            G#
  They Disappear now when I'm dreamin' of your face 
      
 
     C#                    
I'm here without you baby, 
G#                               Bbm  
 But you're still on my lonely mind 
                       F#       
I think about you baby and I dream 
  G#                C#
about you all the time
                         G#            
I'm here without you baby, 
                                 Bbm
But you're still with me in my dreams,
       F#   G#                       Bbm   G#   Bbm   F#  G#
And tonight, there's only you and me ….yeah.
 
     Bbm                       
The miles just keep rollin', 
         G#                            Bbm    F#  G#
As the people leave their way to say hello
                 Bbm                           
I've heard this life is overrated, 
       G#                              Bbm      F#    G#
But I hope that it gets better as we go   oh yeah yeah 
 
     C#                    
I'm here without you baby, 
G#                               Bbm 
 But you're still on my lonely mind 
                       F#       
I think about you baby and I dream 
  G#                C#
about you all the time
                         G#            
I'm here without you baby, 
                                 Bbm
But you're still with me in my dreams,
       F#   G#                       Bbm 
And tonight, there's only you and me 
 
Bbm                  C#                 G#
  Everything I know, and anywhere I go 
                           F#             
It gets hard but it won't take away my love, 
Bbm                         C#
And when the last one falls, 
                        G#
when it's all said and done.
                           F#           
It gets hard but it won't take away, 
                 C#    G#         Bbm    F# G#
my love, woo oh woooo ooooh  ou_ouoh  
 
    C#                    
I'm here without you baby, 
G#                               Bbm 
 But you're still on my lonely mind 
                       F#       
I think about you baby and I dream 
  G#                C#
about you all the time
                         G#            
I'm here without you baby, 
                                 Bbm
But you're still with me in my dreams,
       F#   G#                       Bbm 
And tonight, there's only you and me 


Enviada por Sem inscrição
Nº de acordes: 4