Intro: F# C#  Ebm (x2)

Guitar 2:
e|---------4-1--------1------4-1------1-----|
B|-----2-2------2-2-4----2-2------2-4---4-2-|
G|-1h2--------------------------------------|
D|------------------------------------------|
A|------------------------------------------|
E|------------------------------------------|

e|4-1--------1------4-1------1-------|
B|-----2-2-4----2-2------2-4---4-2---|
G|---------------------------------1-|
D|-----------------------------------|
A|-----------------------------------|
E|-----------------------------------|


Verse !:
C#
  Sleep well Tucked tight
                       F#
Make sure you hide the night
This was for the best
C#
  Stay out Of sight
                      F#
Fled the scene of the crime
To avoid an arrest


Refrain:
        Ebm           Fm
We will brawl for the cause
       F#
That's all we've got
   Ebm        Fm
No matter the cost
We're singing


Chorus:
Bbm     G#
Whoa-oh ohh
Ebm       C#
Whoa-ah-o ohh
Bbm     G#
Whoa-oh ohh
Ebm
Oh, no, no, no


Verse 2:
C#
  Beggars and thieves
                  F#
Is what we had to be
Un-invited guests
C#
  Shake this disease
                         F#
They'll quarantine this street
But color me impressed


(Repeat Refrain and Chorus)
(Repeat intro)


Bridge:
Ebm         Fm
  I know we won't get caught
    F#
But if we do
                   Ebm
we'll say we never knew
            Fm
This is our chance to lose it

Refrão 2x


Enviada por Sem inscrição
Nº de acordes: 6