Tuning: Drop C

Note: I tried to time guitar 1 and guitar 2 as close as I could

Intro: 
|---------------------------------------------------------------|
|---------------------------------------------------------------|
|---------------------------------------------------------------|
|-----------8-7-5-7-5-----------5-7-8-7-5---5-7-----------------|
|-555-8-7-5-----------8---555-8-----------8---------------------|
|---------------------------------------------------------------|x1
pm... . . . . . . . . .   ... . . . . . . . . .

|---------------------------------------------------------------|
|---------------------------------------------------------------|
|---------------------------------------------------------------|
|-----------8-7-5-7-5-----------5-7-8-7-------------------------|
|-555-8-7-5-----------8---555-8---------------------------------|
|---------------------------------------------------------------|x1
pm... . . . . . . . . .   ...


Verse:
Guitar 1:
|---------------------------------------------------------------|
|---------------------------------------------------------------|
|---------------------------------------------------------------|
|-----------8-7-5-7-5-----------5-7-8-7-5---5-7-----------------|
|-555-8-7-5-----------8---555-8-----------8---------------------|
|---------------------------------------------------------------|x1
pm... . . . . . . . . .   ... . . . . . . . . .

Guitar 2:
|---------------------------------------------------------------|
|---------------------------------------------------------------|
|---------------------------------------------------------------|
|-0~~~--------------------3~~~----------------------------------|
|-0~~~--------------------3~~~----------------------------------|
|-0~~~--------------------3~~~----------------------------------|x1

====================
Guitar 1:
|---------------------------------------------------------------|
|---------------------------------------------------------------|
|---------------------------------------------------------------|
|-----------8-7-5-7-5-----------5-7-8-7~------------------------|
|-555-8-7-5-----------8---555-8---------------------------------|
|---------------------------------------------------------------|x1
pm... . . .     . . . .   ...

Guitar 2:
|---------------------------------------------------------------|
|---------------------------------------------------------------|
|---------------------------------------------------------------|
|-8~~~--------------------8~~~----7~~~--------------------------|
|-8~~~--------------------8~~~----7~~~--------------------------|
|-8~~~--------------------8~~~----7~~~--------------------------|x1

whole verse x3


Chorus 1:
|---------------------------------------------------------------|
|---------------------------------------------------------------|
|---------------------------------------------------------------|
|-0--3-0-8-7---03-0-8-7--0--3-0-8-7--5--5-5-10-10-10--12--------|
|-0--3-0-8-7---03-0-8-7--0--3-0-8-7--5--5-5-10-10-10--12--------|
|-0--3-0-8-7---03-0-8-7--0--3-0-8-7--5--5-5-10-10-10--12--------|x1

|---------------------------------------------------------------|
|---------------------------------------------------------------|
|---------------------------------------------------------------|
|-0--3-0-8-7---03-0-8-7--0--3-0-8-7--5--5-5---------------------|
|-0--3-0-8-7---03-0-8-7--0--3-0-8-7--5--5-5---------------------|
|-0--3-0-8-7---03-0-8-7--0--3-0-8-7--5--5-5--8-7-5-7-5-3--------|x1
pm                                           . . . . . .


Verse 2: Same as verse 1 (x4)


Chorus 2:
|---------------------------------------------------------------|
|---------------------------------------------------------------|
|---------------------------------------------------------------|
|-0--3-0-8-7---03-0-8-7--0--3-0-8-7--5--5-5-10-10-10--12--------|
|-0--3-0-8-7---03-0-8-7--0--3-0-8-7--5--5-5-10-10-10--12--------|
|-0--3-0-8-7---03-0-8-7--0--3-0-8-7--5--5-5-10-10-10--12--------|x2

|---------|
|---------|
|---------|
|-0~~~~---|
|-0~~~~---|
|-0~~~~---|x1


Breakdown:
|---------------------------------------------------------------|
|---------------------------------------------------------------|
|---------------------------------------------------------------|
|---------------------------------------------------------------|
|----------6-5-3-5-3-5----------------6-5-3-5-------------------|
|-555-8-55-------------(x3)--555-8-55---------(x1)--------------|
pm... . .. . . . . . .       ... . .. . . . .

|---------------------------------------------------------------|
|---------------------------------------------------------------|
|---------------------------------------------------------------|
|----------8----7---5-------------------------------------------|
|-555-8-55---55---5----(x4)-------------------------------------|
|---------------------------------------------------------------|
pm... . .. . .. . . .

|---------------------------------------------------------------|
|---10's--------------------------------------------------------|
|----V----------------------------------------------------------|
|----------------13------12------10--------------------13-----12|
|-101010-13-1010----1010----1010---(x3)-101010-13-1010----1010--|(x1)
|---------------------------------------------------------------|
pm...... .. .... .. .... .. .... ..     ...... .. .... .. ......


Bridge:
Guitar 1:
|-10~~~---------------------------------------------------------|
|---------10~~~---10b11~~r10------------15V---------------------|
|------------------------------10~~~----------------------------|
|------------------------------------12-------------------------|
|---------------------------------------------------------------|
|---------------------------------------------------------------|

Guitar 2:
|---------------------------------------------------------------|
|---------------------------------------------------------------|
|---------------------------------------------------------------|
|-0~~~----3~~~----8~~~---------7-77-----------------------------|
|-0~~~----3~~~----8~~~---------7-77-----------------------------|
|-0~~~----3~~~----8~~~---------7-77-----------------------------|

===============
Guitar 1:
|-10~~~---------------------------------------------------------|
|---------10~~~---10b11-


Enviada por Sem inscrição
Nº de acordes: 0