loooord
Riff começa
E|----------------------------------------------------------------------
B|---------------------------------------------------------------------
G|---------5------7B-5----5-----------------------------------------
D|-7-7-7-5--7-7-----5-7-5-7----------------------------------------
A|-0-0-0-----0-0-------0----0----------------------------------------
E|---------------------------------------------------------------------

Riff do Verso

E|---------------------------------------------------------------------
B|---------------------------------------------------------------------
G|---------5------5------5----5------------------------------------
D|-7-7-7-5--7-7-5-7-7-5-7-5-7---------------------------------------
A|-0-0-0-----0-0---0-0----0---0----------------------------------------
E|---------------------------------------------------------------------


 
see that cat 
yeah i do mean 
you see that cat 
yeah i do mean you 


E---------------------------------------------------------------------
B---------------------------------------------------------------------
G---------5---5---5-------------5-----5----------------------------
D-7-7-7-----7---7---7----7-7-7-----7------------------------------------
A-0-0-0-----0-0---0-0----0---0----------------------------------------
E---------------------------------------------------------------------

she got a tv eye on me 
she got a tv eye 
she got a tv eye on me, oh 

see that cat 
down on her back 
see that cat 
down on her back 
she got a tv eye on me 
she got a tv eye 
she got a tv eye on me, oh 

see that cat yeah 
i love her so 
see that cat yeah 
i love her so 

she got a tv eye on me 
she got a tv eye 
she got a tv eye on me, oh 

solo

right on, right on, right on 
see that cat 
yeah i love her so 
see that cat 
yeah i love her so 

she got a tv eye on me 
she got a tv eye 
she got a tv eye on me, oh


Enviada por Sem inscrição
Nº de acordes: 0