Tequila Baby

Volta Na Sua Cama

Tequila Baby

134 exibições
Tom: A 
 
A                        D                          A 
Ela finge que não vê, ela finge que não quer nada comigo 
A                          D                      A 
E é por isso que ela consegue ir fundo no meu coração, oh não 
F#                  D                F#          D 
E eu fico dando voltas na sua cama e o que você quiser 
F#                 D               A 
Aham, eu dou é o maior prazer pra mim 
A                      D                         A 
Mas ela finge que não vê, ela finge que não quer nada comigo 
A                         D                         A 
E é por isso que ela consegue ir fundo no meu coração, oh não 
F#                 D             F#              D 
E eu fico dando voltas na sua cama e o que você quiser 
F#                D                  A 
Aham, eu dou é o maior prazer pra mim 
[solo] 
e|-------------------------------------------------- 
B|-------------------------------10-9--------------- 
G|------9-9-7-6--------9-9-7-6--------11------------ 
D|-9>11---------7-9>11---------7---------9-7-11bend- 
A|-------------------------------------------------- 
E|-------------------------------------------------- 
e|------------------------------------------------------- 
B|------------------------------------------------------- 
G|------------------------------------------------------- 
D|------------------------------------------------------- 
A|-7-7-7-7-7-5-4---7-7-7-7-7-5-4---7-7-7-7-7-5-4-----5--- 
E|---------------5---------------5---------------5-7---5- 
e|---------------------------------------------------------- 
B|----------------------------------------------10-10>12-10- 
G|-----------------------------------------9-11------------- 
D|-888888-777777-6-------7-9-11-7-9-11bend------------------ 
A|-----------------9-7-5------------------------------------ 
E|---------------------------------------------------------- 
F#               D              F#                D  
E eu fico dando voltas na sua cama e o que você quiser 
F#                  D             A 
Aham, eu dou é o maior prazer pra mim 
G# A 
Aham (8x) 


Enviada por Sem inscrição
Nº de acordes: 4