Tom: D
Intro: repetir notas 
E|-----------------| 
B|-----------------| 
G|-(7)-(5)---------|2 
D|---------(7)-(8)-|vezes 
A|-----------------| 
E|-----------------| 
[D F A] 2x 
[D F A] 
Ele disse 
hey cara como gosto dela 
ela disse 
que sente solidão 
ele disse 
que pensa nela o tempo todo 
ela pensa 
respira solidão 
[F C A A#] 
O branco 
do uniforme médico 
foi tudo que ela viu 
antes de deixar de viver 
[A# F A# A] 
Foi tudo que ela viu 
[D F A] 
Ela disse 
que nunca se sentiu tão só 
ele disse 
que mataria por ela 
ela disse 
seus olhos não enxergam cores 
ele disse 
que quer viver sempre ao seu lado 
[F C A A#] 
O branco 
do uniforme médico 
foi tudo que ela viu 
antes de deixar de viver 
[A# F A# A] 
Foi tudo que ela viu 

Solo: repetir as notas entre () 
E|-----------------|----------------------------|-----| 
B|-----------------|----------------------------|-----| 
G|-(7)-(5)---------|-(7)-(10)-(9)-(10)-9-10-5-7-|-5-7-| 
D|---------(7)-(8)-|----------------------------|-----| 
A|-----------------|----------------------------|-----| 
E|-----------------|----------------------------|-----| 
[D A A# C] 

[F C A A#] 
O branco 
do uniforme médico 
foi tudo que ela viu 
antes de deixar de viver 
[A# F A# A] 
Foi tudo que ela viu 
[D A A# C] 


Enviada por Sem inscrição
Nº de acordes: 5