Sem imagem

Wined And Dined

Syd Barrett

83 exibições
Intro: 
~~~~~~
|--0--0----------1---3---0-----|
|--2--2--x--x----1---1---2-----|
|--2--2--x--x----2---2---2-----|
|--2--2--x--x----3---3---2-----|
|--0--0------------------0-----|
|------------------------------|

Riff :
~~~~~~~
|--0--0----------1---3-->>
|--2--2--x--x----1---1-->>
|--2--2--x--x----2---2-->>
|--2--2--x--x----3---3-->>
|--0--0----------------->>

>>---------------------->>
>>--0---0---------2--5-->>
>>--2---2--x--x---3--3-->>
>>--2---2--x--x---2--2-->>
>>--2---2--x--x---0--0-->>
>>--0---0--------------->>
>>---------------------->>

>>--0--0---0--0---0--0-----|
>>--2--2---0--0---2--2-----|
>>--2--2---1--1---2--2-----|
>>--2--2---2--2---2--2-----|
>>--0--0---2--2---0--0-----|
>>---------0--0------------|

Toque o Riff com o Verso...

A    F   A         D A E A
Wined and dined, oh it seemed just like a dream! 
Girl was so kind. 
kind of love I'd never seen 
A F A D A E A

E         E        D A
only last summer, it's not so long ago... 
just last summer, now musk winds blow... 
E E C D

A    F   A         D A E A
Wined and dined, oh it seemed just like a dream! 
Girl was so kind. 
kind of love I'd never seen 
A F A D A E A

Intervalo:  

A F A D A E A
A F A D A A
E E D A
E E C D

A F x3


A    F   A         D A E A
Wined and dined, oh it seemed just like a dream! 
Girl was so kind. 
kind of love I'd never seen 
A F A D A E A

E          E       D A
Chalk underfoot, life I should prove 
dancing in heat, our love and you... 
E E C D

A    F   A         D A E A
Wined and dined, oh it seemed just like a dream! 
Girl was so kind. 
kind of love I'd never seen 
only last summer, it's not so long ago... 
just last summer, now musk winds blow... 
A F A D A E A

Outro: A E A


Enviada por Sem inscrição
Nº de acordes: 5