Sem imagem

Leave Lucy

Syd Barrett

84 exibições
Guitar 1
e-----------------------------------------------------|
b-----------------------------------------------------|
d-9999999--7777777777--3333333333---------------------|
g-9999999--7777777777--5555555555---------------------|
a-7777777--5555555555--5555555555---------------------|
e-----------------------------------------------------|

Guitar 2
e-----------------------------------------------------|
b-----------------------------------------------------|
d-----------------------------------------------------|
g-----------------------------------------------------|
a-----------------------------------------------------|
e-----------------------------------------------------|

Guitar 1
e-----------------------------------------------------|
b---9------8------------------------------------------|
d------------9p7--repeat------------------------------|
g-----7h9---------------------------------------------|
a-7---------------------------------------------------|
e-----------------------------------------------------|

Guitar 2
e-----------------------------------------------------|
b-----------------------------------------------------|
d--------22-22----------------------------------------|
g--2-22--22-22----------------------------------------|
a--2-22--00-00----------------------------------------|
e--0-00-----------------------------------------------|

e-----------------------------------------------------|
b-----------------------------------------------------|
d-3-3-3-4---------------------------------------------|
g-3-3-3-4---------------------------------------------|
a-1-1-1-2---------------------------------------------|
e-----------------------------------------------------|

Guitar 1
e-----------------------------------------------------|
b---9------8------------------------------------------|
d------------9p7--repeat------------------------------|
g-----7h9---------------------------------------------|
a-7---------------------------------------------------|
e-----------------------------------------------------|

Guitar 2
e-----------------------------------------------------|
b-----------------------------------------------------|
d--------22-22----------------------------------------|
g--2-22--22-22----------------------------------------|
a--2-22--00-00----------------------------------------|
e--0-00-----------------------------------------------|


Guitar 1
e-----------------------------------------------------|
b-----------------------------------------------------|
d--5-5--7-7-7-----9--9--------------444444------------|
g--5-5--7-7-7-----9--9--7h8p7h8-----444444------------|
a--3-3--5-5-5---7---7---------------222222------------|
e-----------------------------------------------------|

Just listen to the song to get the rythym


Enviada por Sem inscrição
Nº de acordes: 0