Sem imagem

Yes And No

Swell

24 exibições
Chords (can be played instead of guitar1): Gm, Dm

Played on keyboard, arranged for guitar. A beautiful instumental and psychedelic song...

Guitar1 :
-----------------------------|
---------11------10----------|
---------12------10----------|
-12--------------------------|
-----------------------------|
-----------------------------|play this from the begining to the end


Guitar2 fig.1 :
---------10-------------------------------------------|
-----11------10---------------------------------------|
-----------------12-----------------------------------|
*|
-------------------------------------------10--12--13-|
------------------------------------------------------|
play fig.1 two times before fig.2

Guitar2 fig.2 :
----------------------------------------------------------|
-----------------------10---------------------------------|
---------12----------------12-----------------------------|
---10-12-----------------------12--10------12--12---------|
---------------------------------------------------10--10-|
----------------------------------------------------------|


Enviada por Sem inscrição
Nº de acordes: 0