Sem imagem

Get High

Swell

32 exibições
No real difficulty : 11/(13)means a bend

Intro :
           F                        G #       F                      G#
-----------11----------11/13)11--------------11-----------11/13)11---|
------10------------10---------------------10-----------10-------------|
-10--------------10---------------------10-----------10----------------|
-----------------------------------------------------------------------|
-----------------------------------------------------------------------|
-----------------------------------------------------------------------|

       F                               G#       F                  G#
-16/(18)---13/(15)13-11/(13)11-10/(11)10----------------------------|
--------------------------------------------11/13---11p10--------------|
----------------------------------------------------------10-8-10---10-|
-----------------------------------------------------------------------|
-----------------------------------------------------------------------|
-----------------------------------------------------------------------|


Verse :
F
 We’re gonna take a vow,
                               G#    F  G#
We’re gonna live this place together
F
 We’re gonna take a vow,
                               G#
We’re gonna live this place together
F     G#                        F     G#
      Why don’t you think about that

Chorus :
A#                                 G#
 Aching to find where the tulips cry
A#
 On and on and on again
       B#    D#  F    G#  F  G#
I still   get    high

Verse :
F
 We’re gonna take a vow,
                               G#
We’re gonna live this place forever
F
 We’re gonna take a vow,
                               G#
We’re gonna live this place forever

Chorus :
A#                                 G#
 Aching to find where the tulips cry
A#
 On and on and on again
       B#    D#  F
I still   get    high
G#
 Yes I do…

Bridge :
       F                         G#        F                      G#
-------11-----------11/13)11--------------11-----------11/13)11---|
----10-----------10---------------------10-----------10-------------|
-10-----------10---------------------10-----------10----------------|
--------------------------------------------------------------------|
--------------------------------------------------------------------|
--------------------------------------------------------------------|

       F                               G#          A#
-16/(18)---13/(15)13-11/(13)11-10/(11)10---8-10-6-|
---------------------------------------------------6-|
---------------------------------------------------7-|
---------------------------------------------------8-|
---------------------------------------------------8-|
---------------------------------------------------6-|

A#  G#  A#  G#

A#
 I don’t know about a foolish snake
                      G#
And I know I can’t return to heaven
A#                           B#    D#  F
 But you can bet that I still   get    high

Ending :
G#         F
 Still get high
G#         F            G#          F             G#         F
------------------------------------------------------------------------|
------------------------------------------------------------------------|
------------------------------------------------------------------------|
-----------3--------3---------------3--------3---------------3--------3-|
------------------------------------------------------------------------|
------------------------------------------------------------------------|
 Still get high           Still get high           Still get high

G#
 Still get…


Enviada por Sem inscrição
Nº de acordes: 6