Stone Temple Pilots

Plush (Acústico)

Stone Temple Pilots

15.197 exibições
Tom: G

Riff Intro: 
e|-3-3--3--3--3-3--3--3-3-3-3-3-3--3-3-3--3---------
B|-3-3--2--2--1-1--0--0-1-2-3-3-2--2-1-1--0---------
G|-0-0--0--0--0-0--0--0-0-0-0-0-0--0-0-0--0---------
D|--------------------------------------------------
A|--------------------------------------------------
E|--------------------------------------------------

e|-3-3-3-3-3--3--3-3-3-3--3-3-3-3-3--3--3-3-3-3-----|
B|-0-1-2-3-3--2--2-1-1-0--0-1-2-3-3--2--2-1-1-0-----|
G|-0-0-0-0-0--0--0-0-0-0--0-0-0-0-0--0--0-0-0-0-----|
D|--------------------------------------------------|
A|--------------------------------------------------|
E|--------------------------------------------------|

Verso 1:
G        D9/F#     F              C/G  Eb7+
  And I feel that time´s a wasted go
                  F          G
So where are you going to tomorrow?
      D9/F#     F                C/G  Eb7+
And I see that these are lies to come
          F           D9 C9 G/B C9 G/B
Would you even care?

Pré-Refrão:
       (D9 C9 G/B C9 G/B) 2x
And I feel it
       D9 C9 G/B C9 G/B
And I feel it

Refrão 1:
Eb7+                            F
     Where are you going for tomorrow?
Eb7+                                F
     Where are you going with that mask I found?
Eb7+
     And I feel, and I feel
          F
When the dogs begin to smell her
Eb7+                  F
     Will she smell alone?

(Riff Intro)

Verso 2:
G        D9/F#    F                  C/G    Eb7+
  And I feel, so much depends on the weather
           F               G
So, is it raining in your bedroom?
      D9/F#      F                    C/G   Eb7+
And I see, that these are the eyes of disarray
          F          D9 C9 G/B C9 G/B
Would you even care?

Pré-Refrão:
       (D9 C9 G/B C9 G/B) 2x
And I feel it
         D9 C9 G/B C9 G/B
And she feels it

Refrão 1:
Eb7+                            F
     Where are you going for tomorrow?
Eb7+                                F
     Where are you going with that mask I found?
Eb7+
     And I feel, and I feel
          F
When the dogs begin to smell her
Eb7+                  F
     Will she smell alone?

Refrão 2:
G5        F5
When the dogs do find her
C5              D5 D#5 D5     G5
Got time, time, to wait for tomorrow
F5          C5          D5 D#5 D5
To find it, to find it, to find it

G5        F5
When the dogs do find her
C5              D5 D#5 D5     G5
Got time, time, to wait for tomorrow
F5          C5          D5
To find it, to find it, to find it

(Riff Intro)


Enviada por Sem inscrição
Nº de acordes: 13