Staind

It's Been A While

Staind

315 exibições
Tom: Asus4
Intro: Asus4   Cadd9   G   Dsus2  (bass, electric)
       Asus4   Cadd9   G   Dsus2  (+acoustic pick)
Riff1 (Intro / verse)
Eb------------------------------|----------------------------|
Bb--------------5~--------------|--------------1p0~----------|
Gb------7-----------7-----------|-(0)--0-------------0-------|
Db-(7)------7-----------7-------|-(2)------2------------(2)--|
Ab--0----------------------(0)--|--3-------------------------|
Db------------------------------|----------------------------|
    Asus4                          Cadd9
Eb-----------------------------|-------------------------------|
Bb-----------------------------|-----------------3p1~----------|
Gb-------------0~--------------|----------0-------------0------|
Db-4---4-----------4------(4)--|(-2)--2-------2-------------2~-|
Ab-5-------5-----------5-------|--0----------------------------|
Db-5---------------------------|-------------------------------|
   G                              Dsus2
[Verse1] (Riff1, Drums)
Asus4                    Cadd9             G       Dsus2
 And it's been awhile__, since I could__           hold_ my_ head_ up_ high__
Asus4                    Cadd9         G           Dsus2
 And it's been awhile__, since I first saw you__
Asus4                    Cadd9         G                Dsus2
 And it's been awhile__, since I could stand__  on_ my_ own_ two_ feet_ again_
Asus4                    Cadd9         G             Dsus2
 And it's been awhile__, since I could call__ you__
Riff2 (Chorus)
e---------------3------3--------------------------------
B---------------3------3--------------------------------
G-2------2------5------5------7-----7-----7-7--4/5\4p0--
D-2------2------5------5------5-----5-----x-x-----------
A-0------0------3------3------5-----5-----5-5--2/3\2----
E-----------------------------5-----5-----0-0-----------
  A5            Csus2         G*          D*
[Chorus1] (Riff2, Distortion)
A5        C5                   G5         D5
 And everything__ I__ can__ re_mem_ber__
A5            C5               G5         D5
 Is fucked up as it al__ways__ seemed__
A5         C5                G5          D5
 The con_sequences_ that are rendered__
A5             C5               G5          D5
 I stretched myself__ beyond my means__
[Verse2] (Riff1, Drums)
Asus4                  Cadd9            G             Dsus2
 And it's been awhile, since I couldn't say__  that I wasn't addicted and
Asus4              Cadd9            G                 Dsus2
 It's been awhile, since I couldn't say_ I_ loved_ my_self_ as_ well_ and
Asus4              Cadd9               G                      Dsus2
 It's been awhile, since I've gone and fucked things up  just like I always do_
                  (since I've gone and fucked things up  just like I always do)
Asus4                  Cadd9        G                   Dsus2
 And it's been awhile, but all that SHIT_ seems to disappear when I'm with you
[Chorus2] (Riff2, Distortion)
A5        C5                   G5         D5
 And everything__ I__ can__ re_mem_ber__
A5            C5               G5         D5
 Is fucked up as it al__ways__ seemed__
A5         C5                G5          D5
 The con_sequences_ that are rendered__
A5         C5              G5          D5
 Gon__na__ fuck things up again__ yeah___eah____eah_eah_eah____
[Solo] (Lead1)
G5             D5       A5
                             Why_ must_ I_ feel_ this_
G5             D5       A5
way____________hey__         Just_ make_ it_ this_ go_
G5             D5       A5
away___________hey__         Just_ one__ more_ peaceful_
G5             D5       A5  (hold)
day____________hey_hey_
Lead1
Eb---------------------------------------------------------------------  
Bb------------------------------------------------0~------0~-----------
Gb-12----9/12--12\----9--7----7/9--9\--7--5----2-----5~------5~-0~----- 
Db---------------------------------------------0--------7~---------4~-- 
Ab-10----7/10--10\----7--5----5/7--7\--5--3----0----------------------- 
Db--0-----------------0--0-------------0--0----------------------------
    G5                   D5               A5
[Verse3] (Riff1, Drums)
Asus4                  Cadd9             G      Dsus2
 And it's been awhile, since I could__          look at myself straight
Asus4                  Cadd9            G
 And it's been awhile, since I said I'm sor__ry__ 
Chords:
Tuning:
Electric=Db Ab Db Gb Bb Eb
Acoustic=Eb Ab Db Gb Bb Eb


Enviada por Sem inscrição
Nº de acordes: 16