Pencey Prep

Attention Reader

Pencey Prep

67 exibições
Tabbed by: Nicholas Wong
Email: bulletforthelamentedsoul@hotmail.com

Tuning: dropped D

after piano intro and some feedback

e|-------------------------------------------------------------------|
B|-------------------------------------------------------------------|
G|-----------9-7-6-7-6-----------------------------------------------|x2
D|-4--4--4-------------7---------------------------------------------|
A|-4--4--4---7-5-4-5-4-----------------------------------------------|
D|-4--4--4-------------7---------------------------------------------|

e|-----------------------------------------------------|
B|-----------------------------------------------------|
G|-9/11-11-11-11--9/11-11-11-11---9-7-6-7-6------------|x4
D|------------------------------------------7----------|
A|-7/-9--9--9--9--7--9--9--9--9---7-5-4-5-4-7----------|
D|------------------------------------------7----------|

e|-------------------------------------------------------------------|
B|-------------------------------------------------------------------|
G|-----------9-7-6-7-6-----------------------------------------------|x2
D|-4--4--4-------------7---------------------------------------------|
A|-4--4--4---7-5-4-5-4-----------------------------------------------|
D|-4--4--4-------------7---------------------------------------------|

e|---------------------|
B|---------------------|
G|---------------------|
D|-5~--4~--3~--2~-1~---|
A|-5~--4~--3~--2~-1~---|
D|-5~--4~--3~--2~-1~---|

more coming up




Enviada por Sem inscrição
Nº de acordes: 1