Paul McCartney

All My Loving

Paul McCartney

594 exibições
Solo:
e|-----------5---9-7-5-4---4-7-5-4-----------------------------------
B|-------------5---------5---------7---7-4---4-5---------------------
G|-----------------------------------6-----4-------------------------
D|-------------------------------------------------6-4h5h6-4h5h6-2---
A|-------------------------------------------------------------------
E|-0-2-4-5-----------------------------------------------------------

Baixo:
G|--------------------------------------------------------------
D|-4-2-1-----------------------------2---4----------------------
A|-------4-2-0---------2-3-4---4---4---4----4--5---2-0----------
E|-------------4-2-0-4-------5---5---------------------4-2-...--

           F#m            B7
Close your eyes and I'll kiss you
   E          C#m
Tomorrow I'll miss you
   A          F#m         D  B7
Remember I'll always be true
         F#m         B7
And then while I'm away
            E          C#m
I'll write home every day
          A           B7        E
And I'll send all my loving to you

I'll pretend that I'm kissing
the lips I am missing
And hope that my dreams will come true
And then while I'm away
I'll write home every day
And I'll send all my loving to you

       C#m    Cm7+           C#m7
All my loving I will send to you
       C#m     Cm7+              E
All my loving, darling I'll be true
       C#m            Cm7+
All my loving, all my loving ...
                E
I will send to you


Enviada por Sem inscrição
Nº de acordes: 8