Lobão

Uma Delicada Forma De Calor

Lobão

257 exibições
Tom: D
Intro: 
    v               ^ v ^   ^ v ^  ^ ^   
e---2-------------------------------------0----0---
B---3---------------/7-7-7--/5-5-5--3-3---0----0---
G---2---------------/7-7-7--/5-5-5--4-4---0-0--0---  2 X
D---0---------------/7-7-7--/5-5-5--5-5---5-5--5---
A---0-------------------------------5-5-----5--5---
D---0---------------------------------------5------
D
Eu me lembro de vc ter falado
        A          A5
Alguma coisa sobre mim
        Em
E logo hoje, tudo isso vem à tona
            A
E me parece cair como uma luva
           D
Agora, num dia em que eu choro
          A                         A5
Eu tô chovendo muito mais do que lá fora
             Bb             Bb   /C
Lá fora é só água caindo
                      intro 2x
Enquanto aqui dentro, cai a chuva
E quanto ao que você me disse
Eu me lembro sorrindo
Vendo você tão séria
Tentar me enquadrar, se sou isso
Ou se sou aquilo
E acabar indignada, me achando totalmente impossível
E talvez seja apenas isso:
Chovendo por dentro
Impossível por fora
Eu me lembro de você descontrolada
Tentando se explicar
Como é que a gente pode ser tanta coisa indefinível
Tanta coisa diferente
Sem saber que a beleza de tudo
É a certeza de nada
E que o talvez torne a vida um pouco mais atraente

Bb
E talvez, a chuva, o cinza, 
C7/9					riff2
O medo, a vida, sejam como eu
Bb
Ou talvez , porque você esteja de repente, 
          C7/9             riff2
Assistindo muita televisão
Bb                        C7/9
E como um deus que não se vence nunca
                                  riff2
O seu olhar não consegue perceber
Bb
Como uma chuva, uma tristeza, podem ser uma beleza
    C7/9
E o frio, uma delicada forma 
      intro
De calor
 
Riff2
e--------------------------
B--------------------------
G--------------------------
D-0----0-3-5-/10-5-3-5-5-0-
A-0----0-3-5-/10-5-3-5-5-0-
D-0----0-3-5-/10-5-3-5-5-0- 2x


outro (final)
e-----------------------------------
B-----------------------------------
G-----------------------------------
D-0---0-3-0-3-5---3-5-/7-5-3-5-5-0--
A-0---0-3-0-3-5---3-5-/7-5-3-5-5-0--
D-0---0-3-0-3-5---3-5-/7-5-3-5-5-0-- várias vezes


Enviada por Sem inscrição
Nº de acordes: 6