Linkin Park

Given Up

Linkin Park

1.239 exibições
E|--------------------| 
B|--------------------|
G|--------------------| --> Repete
D|--2-xx-xx-xxx-xx-3--| -->  (4x)
A|--2-xx-xx-xxx-xx-3--|
D|--2-xx-xx-xxx-xx-3--|

E|----------|
B|----------|
G|----------| --> Fim da intro... 
D|-x-8-x-3--| -->    (1x)
A|-x-8-x-3--|
D|-x-8-x-3--|



E|--------------------| 
B|--------------------|
G|--------------------| --> Repete
D|--2-xx-xx-xxx-xx-3--| -->  (4x)
A|--2-xx-xx-xxx-xx-3--|
D|--2-xx-xx-xxx-xx-3--|

E|----------|
B|----------|
G|----------| --> Fim da intro... 
D|-x-8-x-3--| -->    (1x)
A|-x-8-x-3--|
D|-x-8-x-3--|



E|--------------------| 
B|--------------------|
G|--------------------| --> Repete
D|--2-xx-xx-xxx-xx-3--| -->  (4x)
A|--2-xx-xx-xxx-xx-3--|
D|--2-xx-xx-xxx-xx-3--|

E|----------|
B|----------|
G|----------| --> Fim da intro... 
D|-x-8-x-3--| -->    (1x)
A|-x-8-x-3--|
D|-x-8-x-3--|

-----------------------------------------------------------------------------

Verso 1 ->

Não tem guitarra...

-----------------------------------------------------------------------------

Refrão 1 ->

Brad Guitar ->

E|---------------------------|
B|---------------------------|
G|---------------------------| --> Repete
D|--22222-55555-00000-77777--| -->  (3x)
A|--22222-55555-00000-77777--|
D|--22222-55555-00000-77777--|

E|-----------------------------------------|
B|-----------------------------------------|
G|-----------------------------------------| --> Fim do refrão
D|--22222-55555-00000000000-77777-x-8-x-3--| -->     (1x)
A|--22222-55555-00000000000-77777-x-8-x-3--|
D|--22222-55555-00000000000-77777-x-8-x-3--|

Mike Guitar ->

E|---------------------------|
B|---------------------------|
G|---------------------------| --> Repete
D|--22222-55555-00000-77777--| -->  (3x)
A|--22222-55555-00000-77777--|
D|--22222-55555-00000-77777--|

E|-----------------------------------------|
B|-----------------------------------------|
G|-----------------------------------------| --> Fim do refrão
D|--22222-55555-00000000000-77777-x-8-x-3--| -->     (1x)
A|--22222-55555-00000000000-77777-x-8-x-3--|
D|--22222-55555-00000000000-77777-x-8-x-3--|

-----------------------------------------------------------------------------

Verso 2 ->

Não tem guitarra...

-----------------------------------------------------------------------------

Refrão 2 ->

Brad Guitar ->

E|---------------------------------|
B|---------------------------------|
G|---------------------------------| --> Repete
D|--x-x-x-22222-55555-00000-77777--| -->  (3x)
A|--x-x-x-22222-55555-00000-77777--|
D|--x-x-x-22222-55555-00000-77777--|

E|-----------------------------------------|
B|-----------------------------------------|
G|-----------------------------------------| --> Fim do refrão
D|--22222-55555-00000000000-77777-x-8-x-3--| -->     (1x)
A|--22222-55555-00000000000-77777-x-8-x-3--|
D|--22222-55555-00000000000-77777-x-8-x-3--|

Mike Guitar ->

E|---------------------------------|
B|---------------------------------|
G|---------------------------------| --> Repete
D|--x-x-x-22222-55555-00000-77777--| -->  (3x)
A|--x-x-x-22222-55555-00000-77777--|
D|--x-x-x-22222-55555-00000-77777--|

E|-----------------------------------------|
B|-----------------------------------------|
G|-----------------------------------------| --> Fim do refrão
D|--22222-55555-00000000000-77777-x-8-x-3--| -->     (1x)
A|--22222-55555-00000000000-77777-x-8-x-3--|
D|--22222-55555-00000000000-77777-x-8-x-3--|

-----------------------------------------------------------------------------

Pré - Interlude ->

Brad Guitar(faça isso abafado, puxe ah nota dos parenteses) ->

E|--------------------------------------|
B|-------------------------------(3)----|
G|-------------------------------(4)----|
D|-------------------------------(x)----|
A|-------------------------------(2)----|
D|--0-1-2-0-4-3-0-6-5-0-1-2-0-1---------|

-----------------------------------------------------------------------------

Interlude ->

Brad Guitar ->

E|--------------------------------------|
B|-------------------------------(3)----|
G|-------------------------------(4)----|
D|--0-1-2-0-4-3-0-6-5-0-1-2-0-1--(x)----|
A|--0-1-2-0-4-3-0-6-5-0-1-2-0-1--(2)----|
D|--0-1-2-0-4-3-0-6-5-0-1-2-0-1---------|

E|-----------------------------------|
B|-----------------------------------|
G|-----------------------------------|
D|--0-1-2-0-4-3-0-6-5-0-1-2-0-3-2-1--|
A|--0-1-2-0-4-3-0-6-5-0-1-2-0-3-2-1--|
D|--0-1-2-0-4-3-0-6-5-0-1-2-0-3-2-1--|

E|--------------------------------------|
B|-------------------------------(3)----|
G|-------------------------------(4)----|
D|--0-1-2-0-4-3-0-6-5-0-1-2-0-1--(x)----|
A|--0-1-2-0-4-3-0-6-5-0-1-2-0-1--(2)----|
D|--0-1-2-0-4-3-0-6-5-0-1-2-0-1---------|


E|-----------------------------------|
B|-----------------------------------|
G|-----------------------------------|
D|--0-1-2-0-4-3-0-6-5-0-1-2-0-3-2-1--|
A|--0-1-2-0-4-3-0-6-5-0-1-2-0-3-2-1--|
D|--0-1-2-0-4-3-0-6-5-0-1-2-0-3-2-1--|

E|---------------------------------------------------|
B|---------------------------------------------------|
G|---------------------------------------------------|
D|--0-1-2-0-4-3-0-6-5-0-1-2-3-0-2-3-5-0-1-2-3-0-2-3--|
A|--0-1-2-0-4-3-0-6-5-0-1-2-3-0-2-3-5-0-1-2-3-0-2-3--|
D|--0-1-2-0-4-3-0-6-5-0-1-2-3-0-2-3-5-0-1-2-3-0-2-3--|

Mike Guitar ->

E|-------------------------------|
B|-------------------------------|
G|-------------------------------|
D|--0-1-2-0-4-3-0-6-5-0-1-2-0-1--|
A|--0-1-2-0-4-3-0-6-5-0-1-2-0-1--|
D|--0-1-2-0-4-3-0-6-5-0-1-2-0-1--|

E|-----------------------------------|
B|-----------------------------------|
G|-----------------------------------|
D|--0-1-2-0-4-3-0-6-5-0-1-2-0-3-2-1--|
A|--0-1-2-0-4-3-0-6-5-0-1-2-0-3-2-1--|
D|--0-1-2-0-4-3-0-6-5-0-1-2-0-3-2-1--|

E|-------------------------------|
B|-------------------------------|
G|-------------------------------|
D|--0-1-2-0-4-3-0-6-5-0-1-2-0-1--|
A|--0-1-2-0-4-3-0-6-5-0-1-2-0-1--|
D|--0-1-2-0-4-3-0-6-5-0-1-2-0-1--|

E|-----------------------------------|
B|-----------------------------------|
G|-----------------------------------|
D|--0-1-2-0-4-3-0-6-5-0-1-2-0-3-2-1--|
A|--0-1-2-0-4-3-0-6-5-0-1-2-0-3-2-1--|
D|--0-1-2-0-4-3-0-6-5-0-1-2-0-3-2-1--|

E|---------------------------------------------------|
B|---------------------------------------------------|
G|---------------------------------------------------|
D|--0-1-2-0-4-3-0-6-5-0-1-2-3-0-2-3-5-0-1-2-3-0-2-3--|
A|--0-1-2-0-4-3-0-6-5-0-1-2-3-0-2-3-5-0-1-2-3-0-2-3--|
D|--0-1-2-0-4-3-0-6-5-0-1-2-3-0-2-3-5-0-1-2-3-0-2-3--|

-----------------------------------------------------------------------------

Pós - Interlude ->

Brad Guitar(escute a música e preste atenção no tempo de cada abafada...) ->

E|--------------------| 
B|--------------------|
G|--------------------| --> Repete
D|--2-xx-xx-xxx-xx-3--| -->  (4x)
A|--2-xx-xx-xxx-xx-3--|
D|--2-xx-xx-xxx-xx-3--|

E|----------|
B|----------|
G|----------| --> Fim do pós-interlude... 
D|-x-8-x-3--| -->    (1x)
A|-x-8-x-3--|
D|-x-8-x-3--|

-----------------------------------------------------------------------------

Pre - Refrão ->

Brad Guitar(escute a música e preste atenção no tempo de cada abafada...) ->

E|--------------------| 
B|--------------------|
G|--------------------| --> Repete
D|--2-xx-xx-xxx-xx-3--| -->  (4x)
A|--2-xx-xx-xxx-xx-3--|
D|--2-xx-xx-xxx-xx-3--|

E|----------|
B|----------|
G|----------| --> Fim do pre-refrão... 
D|-x-8-x-3--| -->    (1x)
A|-x-8-x-3--|
D|-x-8-x-3--|

Mike Guitar(escute a música e preste atenção no tempo de cada abafada...) ->

E|--------------------| 
B|--------------------|
G|--------------------| --> Repete
D|--2-xx-xx-xxx-xx-3--| -->  (3x)
A|--2-xx-xx-xxx-xx-3--|
D|--2-xx-xx-xxx-xx-3--|

-----------------------------------------------------------------------------

Refrão Final ->

Brad Guitar(preste atenção na ultima nota da música... O Brad faz só...) ->

E|---------------------------|
B|---------------------------|
G|---------------------------| --> Repete
D|--22222-55555-00000-77777--| -->  (3x)
A|--22222-55555-00000-77777--|
D|--22222-55555-00000-77777--|

E|------------------------------------------|
B|------------------------------------------|
G|------------------------------------------| --> Fim do refrão
D|--22222-55555-00000000000-77777-x-8-x-3-2-| -->     (1x)
A|--22222-55555-00000000000-77777-x-8-x-3-2-|
D|--22222-55555-00000000000-77777-x-8-x-3-2-|


Mike Guitar ->

E|---------------------------|
B|---------------------------|
G|---------------------------| --> Repete
D|--22222-55555-00000-77777--| -->  (3x)
A|--22222-55555-00000-77777--|
D|--22222-55555-00000-77777--|

E|----------------------------------------|
B|----------------------------------------|
G|----------------------------------------| --> Fim do refrão
D|--22222-55555-00000000000-77777-x-8-x-3-| -->     (1x)
A|--22222-55555-00000000000-77777-x-8-x-3-|
D|--22222-55555-00000000000-77777-x-8-x-3-|


Enviada por Sem inscrição
Nº de acordes: 0