Legião Urbana

Tempo Perdido

Legião Urbana

14.604 exibições
Tom: C

Intro: 

RIFF
e|----------------------------------------
B|-------12-------12-------12-------12----
G|----12-------12-------12-------12-------
D|-10-------10-------10-------10----------
A|----------------------------------------
E|----------------------------------------

e-----------------------------------------
B-----8-----8-----8-----8-----------------
G---9-----9-----9-----9-------------------
D-7-----7-----7-----7---------------------
A-----------------------------------------
E-----------------------------------------

e-----------------------------------------
B------10------10------10------10---------
G---11------11------11------11------------
D-9-------9-------9-------9---------------
A-----------------------------------------
E-----------------------------------------

e----------------------------------------|
B----------------------------------------|
G-----9---9-----9-----7------------------|
D---9---9-----9--------------------------|
A-7---------7------5---------------------|
E----------------------------------------|

C Am7 Bm Em

           C                 Am7
 Todos os dias quando acordo,
Bm                Em
 Não tenho mais o tempo que passou
           C          Am7
 Mas tenho muito tempo
       Bm              Em
 Temos todo o tempo do mundo.
C              Am7
 Todos os dias antes de dormir,
 Bm                           Em
 Lembro e esqueço como foi o dia:
  C                Am7
 "Sempre em frente,
     Bm               Em
 Não temos tempo a perder."
         C          Am7
 Nosso suor sagrado
            Bm
 É bem mais belo que esse
         Em
 sangue amargo
      C      Am7
 E tão sério
     (Bm   Em)
 E selva...gem.
     (Bm   Em)
 E selva...gem.
     (Bm   Em)
 E selva...gem.

(Em D) 4x

 C                 Am7           Bm
 Veja o sol dessa manhã tão cinza
          Em                  C
  A tempestade que chega é da cor
           Am7
dos teus olhos
   Bm     Em
casta.....nhos.
            C         Am7 
 Então me abraça forte    e me
Bm            
diz mais uma vez
          Em        C        Am7
 Que já estamos distantes de tudo

 Bm                  Em      
 Temos nosso próprio tempo.
 Bm                  Em
 Temos nosso próprio tempo.
 Bm                  Em
 Temos nosso próprio tempo.
      C         Am7      
 Não tenho medo do escuro,
 Bm          Em       C    Am7
   mas deixe as luzes acesas
 Bm     Em
ago.....ra.
       C                 Am7
 O que foi escondido é o que se escondeu
         Bm           
 E o que foi  prometido,
    Em            
ninguém prometeu.
         C             Am7
 Nem foi tempo perdido.
           Bm     Em
 Somos tão jo.....vens.
     Bm      Em
 tão jo.....vens.
      Bm    Em                      
 tão jo.....vens.                     
                                
(Em D) 4x


Enviada por Sem inscrição
Nº de acordes: 6