John Mayer

Sucker

John Mayer

313 exibições
Intro

e---7b--7b------ ----------------------- 
b---8b--8b------ ------9-----9--12---5-- 
g-----------9--- ------9-----9--11---7-- 
d--------------- ------9-----9---9---7-- 
a--------------- ----------------------- 
e--------------- ---0-----0----------7-- 

e----------------------0------0--------------------------------0--------0-
b---9------9---12---5------5----------------------9--12----5--------5-----
g---9------9---11---7------7----------------------9--11----7--------7-----
d---9------9----9---7------7----------------------9---9----7--------7-----
a-------------------------------------/7----------------------------------
e---0---0-----------7------7------0h3-----0----0-----------7--------7-----

Verso:

e-------------------0------0------------------- 
b---9--12--12----5------5----------9----------- 
g---9--11--11----7------7----------9----------- 
d---9---9---9----7------7----------9----------- 
a---------------------------------------------- 
e---0---0--------7------7-------0--0----------- 


e--------------------4-----------
b---5---4---7---2----2--(2)---0---
g---6---5---9---3----2--(2)---2---
d---5---4---9---2----x--(2)---1---
a---x---x---x---x----x--(x)---2---
e---5---4---9---2----2--------x---

e----------------------------------------9---4--------------- 
b---4--5--4--5----9---9----4--5--4--5---10---5---4------5--4- 
g---4--4--4--4----9--11----4--4--4--4----9---4---4------4--4- 
d---2--2--2--2----9---9----2--2--2--2---11---6---2----2------ 
a---0--0--0--0----x---x----0--0--0--0----9---4---0--0-------- 
e-----------------0--10-------------------------------------- 

e----------------------------------- 
b---9---9---6--7--6---------2---5--- 
g---9--11---4--4--4---------2---6--- 
d---9---9---6--6--6---------2---7--- 
a---x---x---4--4--4----------------- 
e---0--10-------------------2---7--- 


e---------------0-------------------------- 
b---3---2---5---0---3-----10--10---3---5--- 
g---4---3---7---1---5-----12--11---3---6--- 
d---3---2---7---0---5-----10--10---3---7--- 
a---x---x---x---2---x--------------x---x--- 
e---3---2---7---0---5---10---------3---7--- 


e---------------------- 
b---3--3--3---2--2--2-- 
g---4--4--4---3--3--3-- 
d---5--3--3---4--2--2-- 
a---------------------- 
e---3--3------2--2----- 

e------------------------------------ 
b---2---5---4---7----2---5----------- 
g---2---6---4---8----2---6----------- 
d---2---7---4---9----2---7---(...)--- 
a---x---x---x---x----x---x----------- 
e---2---7---4---9----2---7----------- 

Intro

Sometimes 
I wish that I was the weather 
you'd bring me up in conversation forever 
and when it rained 
I'd be the talk of the day 

Sometimes 
I wish that I was a cold beer 
I'd rest assured that you would hold me near you 
I'd be guaranteed to be just what you need 

And there could be no other way 
cause you're so vain 
Your tired words are all the same 
I would surely walk away 
if I wasn't such a sucker for you 

Sometimes 
I wish that I was a bong hit 
You'd let me in and love every minute 
and tell the room 
the things I did to you 

And there could be no other way 
cause you're so vain 
Your tired words are all the same 
I would surely walk away 
if I wasn't such a sucker for you 

I see your world with rosy colored glasses on 
what a right would i see wrong 
I could never have that power over you 

Someday 
I'm gonna pack up and leave this town 
I'm gonna get my own place going on 
and when I do 
I'll forget about how 
you're so lame 
your tired words are all the same 
I would walk, you know I'd away 
if I wasn't such a sucker for you 
I wasn't such a sucker for you 
I wasn't such a sucker for you

(alvimrod@gmail.com)


Enviada por Sem inscrição
Nº de acordes: 0