John Mayer

Shadows Days

John Mayer

321 exibições
Tom: D

Verso:
       D         C          G        Em
e------------------------------------0/2------------|
b------10--------8----------3--------0--------------|
g------11--------9----------4--------0--------------|
d------12-------10----------5--------2--------------|
a------x---------x----------x--------2--------------|
e------10--------8----------3--------0--------------|

Você também pode jogar Am em vez de C (se você acha que soa melhor) (5x755x)

Pré-Refrão:
       G             Em   
e------2-------------0/2------------|
b------3-------------0--------------|
g------0-------------0--------------|
d------0-------------2--------------|
a------x-------------2--------------|
e------3-------------0--------------|
Hard times help me see...


Refrão:
      D/F#     D/G        Bm   A4         G
e--------------------------2--------------2-------|
b------3--------3----------3----3---------3-------|
g------2--------2----------4----2---------0-------|
d------0--------0----------4----2---------0-------|
a------x--------x----------2----0---------x-------|
e------2--------3---------------0---------3-------|


Ponte 1:
      D/F#                Bm      E      
e---------------0/2-------2/5-----0-----------|
b------3--------3---------3-------0-----------|
g------2--------0---------4-------1-----------|
d------0--------0---------4-------2-----------|
a------x--------1---------2-------2-----------|
e------2--------------------------0-----------|


Ponte 2: (toca os mesmos acordes do refrão)
      D/F#     D/G        Bm   Asus4      G
e--------------------------2--------------2-------|
b------3--------3----------3----3---------3-------|
g------2--------2----------4----2---------0-------|
d------0--------0----------4----2---------0-------|
a------x--------x----------2----0---------x-------|
e------2--------3---------------0---------3-------|

Letra:
Did you know that you could be wrong
And swear you're right
Some people been know to do it
All their lives

But you find yourself alone
Just like you found yourself before
Like I found myself in pieces
On my hotel floor

Hard times help me see

I'm a good man with a good heart
Had a tough time, got a rough start
And I finally learned to let it go
Now I'm right here, and I'm right now
And I'm hoping, knowing somehow
That my shadows days are over
My shadow days are over now

Well I'm not some trouble maker
And I never meant her harm
But it doesn't mean I didn't make it
Hard to carry on

Well it sucks to be honest (honest)
And it hurts to be real
But it starts to make some love
That I can finally feel

Hard times let me be

I'm a good man with a good heart
Had a tough time, got a rough start
And I finally learned to let it go
Now I'm right here, and I'm right now
And I'm hoping, knowing somehow
That my shadows days are over
My shadow days are over now (2x)


Enviada por Sem inscrição
Nº de acordes: 10