John Mayer

Queen Of California

John Mayer

159 exibições
Capotraste 4ª casa

Tom: G

E|---------x----------------------------|
B|-----0h1-x---1-----------1------------|
G|-----0---x---0---0-----0-----0---0----|
D|-----0h2-x---2h0---2h3-----2---0------|
A|---------x----------------------------|
E|--3------x----------------------------|


Goodbye cold, goodbye rain
Goodbye sorrow, goodbye shame

C
I'm headed out west with my headphones on
Am7
Loading a flight with a song in the back of my soul
No one knows


E|---------x----------------------------|
B|-----0h1-x---1-----------1------------|
G|-----0---x---0---0-----0-----0---0----|
D|-----0h2-x---2h0---2h3-----2---0------|
A|---------x----------------------------|
E|--3------x----------------------------|


D
I just found out her ghost left town

C
The queen of California is a-stepping down, down



E|-1-0-------------|
B|-----3-1-0-------|
G|-----------2-0---|
D|---------------2-|
A|-----------------|
E|-----------------|



E|---------x----------------------------|
B|-----0h1-x---1-----------1------------|
G|-----0---x---0---0-----0-----0---0----|
D|-----0h2-x---2h0---2h3-----2---0------|
A|---------x----------------------------|
E|--3------x----------------------------|


Hello beauty, hello strange
Hello wonder, what's your name?

C
Looking for the sun Neil Young hung
Am7
"After the Gold Rush" of 1971


E|---------x----------------------------|
B|-----0h1-x---1-----------1------------|
G|-----0---x---0---0-----0-----0---0----|
D|-----0h2-x---2h0---2h3-----2---0------|
A|---------x----------------------------|
E|--3------x----------------------------|


D
I just found out her ghost left town

C
The queen of California is a-stepping down, down



E|-1-0-------------|
B|-----3-1-0-------|
G|-----------2-0---|
D|---------------2-|
A|-----------------|
E|-----------------|



E|---------x----------------------------|
B|-----0h1-x---1-----------1------------|
G|-----0---x---0---0-----0-----0---0----|
D|-----0h2-x---2h0---2h3-----2---0------|
A|---------x----------------------------|
E|--3------x----------------------------|


If you see her, say hello
Just don't tell me, "I told you so"

C
Joni wrote "Blue" in a house by the sea
Am7
I gotta belive there's another color waiting on me


E|---------x----------------------------|
B|-----0h1-x---1-----------1------------|
G|-----0---x---0---0-----0-----0---0----|
D|-----0h2-x---2h0---2h3-----2---0------|
A|---------x----------------------------|
E|--3------x----------------------------|


To set me free

D
I just found out her ghost left town
C
The queen of California is a-stepping down, down


Enviada por Sem inscrição
Nº de acordes: 4