John Mayer

No Such Thing

John Mayer

6.374 exibições
Tom: E  

Intro: 
  E7+/9                              E
e-----x------x----x------x------x----x----------
B-----x------x----x------x------x----x----------
G-----11-----11---11-----11-----11---11---------
D-----13-----13---13-----13-----13---14---------
A-----11-----11---11-----11-----11---11---------
E-0-0----0-0----0----0-0----0-0----0------------
  
  E                                  E7+/9
e-----x------x----x------x------x----x----------
B-----x------x----x------x------x----x----------
G-----11-----11---11-----11-----11---11---------
D-----14-----14---14-----14-----14---13---------
A-----11-----11---11-----11-----11---11---------
E-0-0----0-0----0----0-0----0-0----0------------

Verso 1:
E7+/9  
"Welcome to the real world"
    A9
She said to me condescendingly
C#m7/4 
Take a seat, Take your life
Am7 
Plot it out in black and white
E7+/9   
Well I never lived the dreams
        A9
of the prom kings
And the drama queens
                      C#m7/4
I´d like to think the best of me
                   F#4 
Is still hiding up my sleeve

Pré-Refrão: 
      A9 
They love to tell you
                 E7+/9  
"Stay inside the lines"
    F#               
But something´s better
A9           E7+/9 
On the other side

Refrão:
            Am           D7/9 
I wanna run through the halls
      E7+/9
of my high school
          Am         
I wanna scream at the
D7/9      E7+/9
Top of my lungs
             Am 
I just found out there´s no
     D7/9         E7+/9
such thing as the real world
       Am                D7/9  E7+/9
Just a lie you´ve got to rise above

Verso 2:
E7+/9  
So the good boys and girls
         A9
take the so called right track
                          C#m7/4 
Faded white hats grabbing credits and
Maybe transfers
     Am7 
They read all the books but they
can´t find the answers
E7+/9                                   A9
And all of our parents, They´re getting older
                                        C#m7/4 
I wonder if they´ve wished for anything better
                              F# 
While in their memories tiny tragedies

Pré-Refrão: 
      A9 
They love to tell you
                 E7+/9  
"Stay inside the lines"
    F#               
But something´s better
A9           E7+/9 
On the other side

Refrão:
            Am           D7/9 
I wanna run through the halls
      E7+/9
of my high school
          Am         
I wanna scream at the
D7/9      E7+/9
Top of my lungs
             Am 
I just found out there´s no
     D7/9         E7+/9
such thing as the real world
       Am                D7/9  E7+/9
Just a lie you´ve got to rise above

Ponte:

F7+/5- A9

F7+/5-     A9 
 I am invincible
F7+/5-     A9 
 I am invincible
F7+/5-     A9 
 I am invincible
    G/A         (Riff final ponte)
As long as I´m alive

(E7+/9    F# A9)

Riff final Ponte:
  A9
e-x-x-x-x--x-x-x-x--x-x-x-x--x--x--x--x---------
B-x-x-x-x--x-x-x-x--x-x-x-x--x--x--x--x---------
G-4-4-4-4--6-6-6-6--9-9-9-9--13-13-13-13--------
D-2-2-2-2--4-4-4-4--7-7-7-7--11-11-11-11--------
A-0-0-0-0--0-0-0-0--0-0-0-0--0--0--0--0---------
E-----------------------------------------------
  
Refrão:
             Am          D7/9        E7+/9
I just can´t wait til my 10 year reunion
           Am           D7/9   E7+/9
I´m gonna bust down the double doors
            Am            D7/9     E7+/9 
And when I stand on these tables before you
          Am                D7/9     E7+/9  
You will know what all this time was for


Enviada por Sem inscrição
Nº de acordes: 10