John Mayer

Love Soon

John Mayer

255 exibições
 Riff 1
      G   F    C    D
e|----x---x----x----x---- 
b|----3---1----8----8---- 
g|----0---0----0---11---- 
d|----5---3---10---10---- 
a|----x---x----x----x---- 
e|----3---1----8---10---- 

Riff 2

e|----10---3--(3)--10---x--x----x---x—
b|-----8---3---4----8---4--5----5---7--
g|-----8---0---4----7---6--6----5---7--
d|-----8---0---0----9---5--5----5---7—
a|-----x---x---x----7---x--x----x---x—
e|-----8---3---3----x---5--5----5---7--


Riff 3

e|-----x----x---- 
b|-----x----x---- 
g|----10---12---- (2x) 
d|-----8---10---- 
a|-----6----8---- 
e|-----x----x---- 


Riff 1 
I know you've been sworn
I read your complaint
You're needing someone older
And though I've been warned to live day by day
There's something taking over

A, E7m, D/F#
Did you expect to kiss me one time
while looking at me with the same eyes ever again?
E5, E, E4
So come on and face it
So come on and face it
Am, Am6, C, D
It's time that we say it

G, D/F#, Am, C
You can cross the line whenever you want to
I'm calling it love soon
Close your mind and waste some time if you have to
I'm calling it love soon
It's not about you now
C, D
It's what we are

Riff 1
Your mother complains that you need a man
You haven't mentioned me yet
And all of your friends don't know who I am
I've been your best kept secret
A, E7m, D/F#
I understand I wasn't part of the plan
A dollar short, a minute early
But I am your man
E5, E, E4
So come on and face it
So come on and face it
Am, Am6, C, D
it's time that we say it

G, D/F#, Am, C
You can cross the line whenever you want to
I'm calling it love soon
Close your mind and waste some time if you have to
I'm calling it love soon
It's not about you now
C, D            Riff 1       
It's what we are

Riff 2
Aet's bypass the bullshit and move on because
the minute hand moves faster than you think it does
And by no fault of yours 
And by no fault of mine
Riff 3
The bottom line is laying 
in the bed that we've been playing in tonight
Riff 1

G, D/F#, Am, C
You can cross the line whenever you want to
I'm calling it love soon
Close your mind and waste some time if you have to
I'm calling it love soon
It's not about you now
C, D, G
It's what we are


Enviada por Sem inscrição
Nº de acordes: 12