John Mayer

Dreaming With A Broken Heart

John Mayer

594 exibições
Intro / Verse

e------3--------3--------3--------3-----
b----3---3----5---5----5---5----5---3---
g--4--------6--------5--------5---------
d---------------------------------------
a---------------------------------------
e---------------------------------------


Chorus

e----------------------------- -----------------------
b---3---3---3---3--3---------- ---3---3---3---3---1---
g---0---2---0---0--0---------- ---0---0---0---0---0---
d----------------------(x2)--- -----------------------
a---------------2--3---------- ---2---3---2---1---0---
e---0---2---3----------------- -----------------------


Interlude

e-------3-----------------3----- -------3---5-------------5-----x---
b------3----6--5--5----5--3----- ------3----6--6-------6--5--3--x---
g---4-5-----5-----5h7--5--4----- --/4-5-----5---------5---5--4--x---
d-----------7-------------5----- -----------7--------7----5--5--x---
a-----------5-------------5--5-- -----------5----5--5--------5--x---
e---3---------------------3----- ---3---------------------------x---
    T                     T         T


When you're dreaming with a broken heart
The waking up is the hardest part
You roll out of bed, and down on your knees
And for a moment, you can hardly breathe

Wondering.. is she really here?
Is she standing in my room?
No she's not
Cause she's gone, gone, gone, gone, gone.

When you're dreaming with a broken heart
The giving up is the hardest part
She takes you in, with her crying eyes
And all at once, you have to say goodbye

Wondering.. could you stay my love?
Will you wake up by my side?
No she can't
Cause she's gone, gone, gone, gone, gone.

Interlude + Ooooooh (intro/verse)

Now do I have to fall asleep, with roses in my hand?
Do I have to fall asleep, with roses in my hand?
Do I have to fall asleep, with roses in my hand?
Do I have to fall asleep, with roses in my, roses in my hand?

Baby would you get them if I did?
No you won't
Cause you're gone, gone, gone, gone, gone.

When you're dreaming with a broken heart
The waking up is the hardest part


Enviada por Sem inscrição
Nº de acordes: 0