John Mayer

Bold As Love

John Mayer

931 exibições
Essa musica eh do jimi hendrix, mais foi feito um cover dele pelo john mayer..
Afinação 1/2 tom abaixo
enjoy!

A	E	F#m	D	C#	D/F#  	Bm	G	G#
e|---5----------0--------2------x-------x--------x-------7------3--------4----|
B|---5----------0--------2------x-------x--------7-------7------3--------4----|
G|---6----------1--------2------7-------6--------7-------7------4--------5----|
D|---7----------2--------4------7-------6--------7-------9------5--------6----|
A|---x----------2--------x------5-------4--------9-------x------x--------x----|
E|---5-------------------2------x-------x--------x-------7------3--------4----|

During the chorus the D/F# and the E are played like this:

     D/F#	E

e|--x-----------x----------|
B|--10----------x----------|
G|---7----------9----------|
D|---7----------9----------|
A|---9----------7----------|
E|--------------x----------|

===============================================================================

[Verse]
A     E		    F#m		D
 Anger he smiles, towering in     shiny metallic purple armour
       A 		E
 Queen jealousy, envy waits behind him
 	F#m		      D		C#
 Her fiery green gown sneers at the grassy ground


[Pre-chorus]

D/F#	      A				   Bm
 Blue are the life-giving waters taken for granted,
	    G
 They quietly understand
D/F#				 A
 Once happy turquoise armies lay opposite ready,
Bm		    G  G#
 But wonder why the fight is on


[Chorus]

A		E	F#m   G     A		E	D/F#
 But theyre all bold as love,        yeah they're all bold as love
A		E	  F#m
 they're all, they're bold as love
 D/F#	      A     Bm   D   G   G#
 Just ask the axis

//I've also found that these chords work during the chorus as well:

	A	E	F#m	G

e|------5-------7--------9-------10---|
B|------5-------6--------7-------8----|
G|------6-------7--------9-------10---|
D|------7-------x--------x-------x----|
A|------x-------7--------9-------10---|
E|------5-------x--------x-------x----|
But they're all bold as love yeah....

[Verse]
My red is so confident that he flashes trophies of war and
Ribbons of euphoria
Orange is young, full of daring,
But very unsteady for the first go round

[Pre-chorus]
My yellow in this case is not so mellow
In fact Im trying to say its frigthened like me
And all these emotions of mine keep holding me from, eh,
Giving my life to a rainbow like you

[Chorus]
But, Im eh , yeah, Im bold as love
Yeah, yeah
Well Im bold, bold as love (hear me talking, girl)
Im bold as love
Just ask the axis (he knows everything)


Enviada por Sem inscrição
Nº de acordes: 14