Iron Weasel

Youre My Baby

Iron Weasel

28 exibições
Tom: D

E | ------7-7b-7b-7b--------- | 
B | --7b----7b-7b-7br----5~-- | 
G | ------------------------- | 
D | ------------------------- | 
A | ------------------------- | 
E | ------------------------- | 

D
'll put you in the lap
C
And everything will be fine
G
I'll look him the eye
A
While rocking all night
D
Cause you're my baby
C       G
My only darling
D
You're my baby
A
From head to rump.

E | ---5------------------------ | 
B | ------8-5------------------- | 
G | ----------7-5--5-7-5---5/--- | 
D | ---------------------7-5/--- | 
A | -----------------------5/--- | 
E | ---------------------------- |


Enviada por Sem inscrição
Nº de acordes: 4