Sem imagem

Veteran

Ignite

101 exibições
X - Dead Note/Scratch
/ - Slide
~ - Let Ring


Intro: Repeat with different strum patterns and variation
e|----------------------------------------------------------------------------| 
B|----------------------------------------------------------------------------| 
G|---------8-8-8-8-----------10-10-10-10-----------8-8-8-8--------------------| 
D|5 5-5-5--8-8-8-8--8-8-8-8--10-10-10-10--5 5-5-5--8-8-8-8--8-8-8-8--3-3-3-3--| 
A|5-5-5-5--6-6-6-6--8-8-8-8--8--8--8--8---5-5-5-5--6-6-6-6--8-8-8-8--3-3-3-3--| 
E|3-3-3-3-----------6-6-6-6---------------3-3-3-3-----------6-6-6-6--1-1-1-1--| 

Verse: x8
e|-------------------| 
B|-------------------| 
G|-----------8-8/10--| 
D|8/10--5-5--8-8/10--| 
A|8/10--5-5--6-6/8---| 
E|6/8---3-3----------| 

Chorus: x1
e|---------------------------------------|------------------------------------| 
B|---------------------------------------|------------------------------------| 
G|---------8-8-8-8-----------10-10-10-10-|---------8-8-8-8--------------------| 
D|5 5-5-5--8-8-8-8--8-8-8-8--10-10-10-10-|5 5-5-5--8-8-8-8--8-8-8-8--3-3-3-3--| 
A|5-5-5-5--6-6-6-6--8-8-8-8--8--8--8--8--|5-5-5-5--6-6-6-6--8-8-8-8--3-3-3-3--| 
E|3-3-3-3-----------6-6-6-6--------------|3-3-3-3-----------6-6-6-6--1-1-1-1--| 

Verse: x4
e|-------------------| 
B|-------------------| 
G|-----------8-8/10--| 
D|8/10--5-5--8-8/10--| 
A|8/10--5-5--6-6/8---| 
E|6/8---3-3----------| 

Chorus: x2                                                                    x1
e|--------------------------------------------------------------------------|-------| 
B|--------------------------------------------------------------------------|-------| 
G|---------8-8-8-8-----------10-10-10-10----------8-8-8-8-------------------|-------| 
D|5 5-5-5--8-8-8-8--8-8-8-8--10-10-10-10-5 5-5-5--8-8-8-8--8-8-8-8--3-3-3-3-|-5~-5~--| 
A|5-5-5-5--6-6-6-6--8-8-8-8--8--8--8--8--5-5-5-5--6-6-6-6--8-8-8-8--3-3-3-3-|-5~-5~--| 
E|3-3-3-3-----------6-6-6-6--------------3-3-3-3-----------6-6-6-6--1-1-1-1-|-3~-3~--|

Bridge: x4 Listen for struming pattern 
e|--------------------------------------------------------|
B|--------------------------------------------------------|
G|-------------8X-8X-8X-8X---------------10X-10X-10X-10X--| 
D|5X-5X-5X-5X--8X-8X-8X-8X--8X-8X-8X-8X--10X-10X-10X-10X--| 
A|5X-5X-5X-5X--6X-6X-6X-6X--8X-8X-8X-8X--8-X-8-X-8-X-8-X--|
E|3X-3X-3X-3X---------------6X-6X-6X-6X-------------------|

Solo: x1
e|-------------------------------------| 
B|-------------------------------------| 
G|-------------------------------------| 
D|-5-----------------------------------| 
A|-5----3/5-3/5-7-7-7-7-7-5/7-5/7/8-3--| 
E|-3-----------------------------------| 

Chorus: x2
e|----------------------------------------------------------------------------| 
B|----------------------------------------------------------------------------| 
G|---------8-8-8-8-----------10-10-10-10-----------8-8-8-8--------------------| 
D|5 5-5-5--8-8-8-8--8-8-8-8--10-10-10-10--5 5-5-5--8-8-8-8--8-8-8-8--3-3-3-3--| 
A|5-5-5-5--6-6-6-6--8-8-8-8--8--8--8--8---5-5-5-5--6-6-6-6--8-8-8-8--3-3-3-3--| 
E|3-3-3-3-----------6-6-6-6---------------3-3-3-3-----------6-6-6-6--1-1-1-1--|

Fill: x1
e|-------------------| 
B|-------------------| 
G|-----------8-8/10--| 
D|8/10--5-5--8-8/10--| 
A|8/10--5-5--6-6/8---| 
E|6/8---3-3----------| 

Chorus: x3
e|----------------------------------------------------------------------------| 
B|----------------------------------------------------------------------------| 
G|---------8-8-8-8-----------10-10-10-10-----------8-8-8-8--------------------| 
D|5 5-5-5--8-8-8-8--8-8-8-8--10-10-10-10--5 5-5-5--8-8-8-8--8-8-8-8--3-3-3-3--| 
A|5-5-5-5--6-6-6-6--8-8-8-8--8--8--8--8---5-5-5-5--6-6-6-6--8-8-8-8--3-3-3-3--| 
E|3-3-3-3-----------6-6-6-6---------------3-3-3-3-----------6-6-6-6--1-1-1-1--|


Enviada por Sem inscrição
Nº de acordes: 0