Sem imagem

Quando A Noite Chegar

Houdini

157 exibições
Tom:  [C]
Intro: [C] [G] [F] [G] [A] 

[C]               [G] 
O tempo não passa ao menos 
[F]         [G]           [A] 
Quando eu me esqueço dele. 
[C]        [G]        [F] [G]   [A] 
E das coisas que eu já vi passar 

[C] 
Já não sou mais o mesmo 
[G] 
Mas ainda me lembro 
[F] 
Do que eu costumava te falar 

[C]       [G]        [A]    [C] [A] [G]               
Não se preocupe comigo 
[C]       [G]        [A]    [C] [A] [G] 
Não vou estar no caminho 
[C]       [G]        [A]    [C] [A] [G] 
Não se preocupe comigo 
[C]       [G]        [A]    [C]
Prefiro seguir sozinho 

 [C] [G] [A] [G] 
Quando a noite chegar 
Vai se o tempo de eu ir embora 
Eu vou estar, estar longe 
Quando a noite chegar 
Vai ser o tempo de eu ir embora 
Eu vou estar, estar longe daqui 

[C]               [G] 
Só quero esquecer agora 
[F]         [G]           [A] 
Por um dia, por um momento 
[C]        [G]        [F] [G]   [A] 
Eu tenho que sair desse lugar 

[C]
Sem mais deixo esse bilhete 
[G]
Você não estava em casa 
[F]
Eu não podia mais esperar 

[C]       [G]        [A]    [C] [A] [G]               
Não se preocupe comigo 
[C]       [G]        [A]    [C] [A] [G] 
Não vou estar no caminho 
[C]       [G]        [A]    [C] [A] [G] 
Não se preocupe comigo 
[C]       [G]        [A]    [C]
Prefiro seguir sozinho 

e|---------------------------------------------------
B|-----5-----------------------14-------15--------15-
G|-5-7---5---5-6-6-5-6-8-5--15----15-15-----15-15----
D|---------5-----------------------------------------

e|----------------------------------------------
B|-16-14----16-14----16-14-------14-16-12/14-16-
G|-------15-------15-------15-15----------------

e|----------------15----------------------------
B|---------14h-16----16-14-16-------------------
G|--14h-16--------------------------------------

[C] [G] [A] [G] 
Quando a noite chegar 
Vai se o tempo de eu ir embora 
Eu vou estar, estar longe 
Quando a noite chegar 
Vai ser o tempo de eu ir embora 
Eu vou estar, estar longe daqui 


Enviada por Sem inscrição
Nº de acordes: 4