Guitarra 1# 
2x
|-------------------------------------|
|-------------------------------------|
|-9(4x)-12--77-11(7x)-12(11x)-11(4x)--|
|-9(4x)-12--77-11(7x)-12(11x)-11(4x)--|
|-7(4x)-10--55-9-(7x)-10(11x)-9-(4x)--|
|-------------------------------------|

2x
|--------------------------------|
|--------------------------------|
|-------5(7x)-------4(7x)--------|
|-2(7x)-5(7x)-5(7x)-4(7x)--------|
|-2(7x)-3(7x)-5(7x)-2(7x)--------|
|-0(7x)-------3(7x)--------------|

2x
|--------------------------------------|
|--------------------------------------|
|-9(6x)-77--9(6x)-77---12(11x)--11(4x)-|
|-9(6x)-77--9(6x)-77---12(11x)--11(4x)-|
|-7(6x)-55--7(6x)-55---10(11x)--9-(4x)-|
|--------------------------------------|

2x
|--------------------------------|
|--------------------------------|
|-------5(7x)-------4(7x)--------|
|-2(7x)-5(7x)-5(7x)-4(7x)--------|
|-2(7x)-3(7x)-5(7x)-2(7x)--------|
|-0(7x)-------3(7x)--------------|

3x
|--------------------------------|
|--------------------------------|
|-55-55--77-77-------------------|
|-55-55--77-77--22-22-22-22------|
|-33-33--55-55--22-22-22-22------|
|---------------00-00-00-00------|

                |2x
|---------------|-----------------------------------------------------|
|---------------|---------------------------8--------8--------8-------|
|-5(7x)--7(7x)--|--12(7x)-11(6x)/12--99--7h9-999-77h9-999-77h9-999----|
|-5(7x)--7(7x)--|--12(7x)-11(6x)/12--99-------------------------------|
|-3(7x)--5(7x)--|--10(7x)-9-(6x)/10--77-------------------------------|
|---------------|-----------------------------------------------------|


|-----------------------------------------------------------|
|-------------------------------8--------8--------8---------|
|-12(7x)-14(6x)--11(3x)--99--7h9-999-77h9-999-77h9-999------|
|-12(7x)-14(6x)--11(3x)--99---------------------------------|
|-10(7x)-12(6x)--9-(3x)--77---------------------------------|
|-----------------------------------------------------------|

|------------------------------------------------------------------------------|
|--------------------------8--------8--------8--------8--------8--------8------|
|-12(7x)-11(6x)/12--99--7h9-999-77h9-999-77h9-999-77h9-999-77h9-999-77h9-999---|
|-12(7x)-11(6x)/12--99---------------------------------------------------------|
|-10(7x)-9-(6x)/10--77---------------------------------------------------------|
|------------------------------------------------------------------------------|

|------------------------------------------------------------------|
|------------------------------------------------------------------|
|-----8--------8----8----8----8----8-----10----10----10-----8------|
|-77h9-999--7h9--7h9--7h9--7h9--7h9---7h9---7h9---7h9---77h9-9-----|
|------------------------------------------------------------------|
|------------------------------------------------------------------|



Guitarra 2#
Guitarra 2# Começa Nessa Parte (depois da Intro da guitarra 1#)
|-------------------------------------------------------------------------|
|-------------------------------------------------------------------------|
|-------------------------------------------------------------------------|
|-9-10(3x)-9-10(3x)-9-10(3x)-9-10(3x)-9-10-10-12-12-10-10-9-9-7h9p7-5-----|
|---------------------------------------------------------------------7---|
|-------------------------------------------------------------------------|

|-----------------------------------------------------------------------------------|
|-----------------------------------------------------------------------------------|
|--------------------------------------------------------------9-9------------------|
|-9-10(3x)-9-10(3x)-9-10(3x)-9-10(3x)-9-10-10-12-12-10-10-12-12---12-12-10-10-9-9---|
|-----------------------------------------------------------------------------------|
|-----------------------------------------------------------------------------------|

2x
|----------------------------|
|----------------------------|
|-------5(7x)-------4(7x)----|
|-2(7x)-5(7x)-5(7x)-4(7x)----|
|-2(7x)-3(7x)-5(7x)-2(7x)----|
|-0(7x)-------3(7x)----------|

2x
|-----------------------------------|
|-----------------------------------|
|-14(5x)-14(5x)-12(5x)-11/12(5x)----|
|-14(5x)-14(5x)-12(5x)-11/12(5x)----|
|-16(5x)-12(5x)-10(5x)-9-/10(5x)----|
|-----------------------------------|

|----------------------------|
|----------------------------|
|-------5(7x)-7(7x)-4(7x)----|
|-2(7x)-5(7x)-7(7x)-4(7x)----|
|-2(7x)-3(7x)-5(7x)-2(7x)----|
|-0(7x)----------------------|

|----------------------------|
|----------------------------|
|--4-4h5(26x)----------------|
|----------------------------|
|----------------------------|
|----------------------------|

                                 2x 
|-----------------------------|-------------------------------------|
|-----------------------------|-------------------------------------|
|-------7(7x)-9(7x)-7/-9(7x)--|--------7(7x)-9(7x)-7/-9(7x)-12(5x)--|
|-5(7x)-7(7x)-9(7x)-7/-9(7x)--|--5(7x)-7(7x)-9(7x)-7/-9(7x)-12(5x)--|
|-5(7x)-5(7x)-7(7x)-5/-7(7x)--|--5(7x)-5(5x)-7(7x)-5/-7(7x)-10(5x)--|
|-3(7x)-----------------------|--3(7x)------------------------------|

|--------------------------------------------------------------------------------------|
|--------------------------------------------------------------------------------------|
|-------7(7x)------8--------8--------8--------8--------8--------8--------8--------8----|
|-5(7x)-7(7x)-777h9-999-77h9-999-77h9-999-77h9-999-77h9-999-77h9-999-77h9-999-77h9-999-|
|-5(7x)-5(7x)--------------------------------------------------------------------------|
|-3(7x)--------------------------------------------------------------------------------|

|-------------------------------------------------------|
|-------------------------------------------------------|
|-----8----8----8----8----8-----10----10----10-----8----|
|--7h9--7h9--7h9--7h9--7h9---7h9---7h9---7h9---77h9-9---|
|-------------------------------------------------------|
|-------------------------------------------------------|


Enviada por Sem inscrição
Nº de acordes: 2