Henrique e Diego

Danca Do Ice

Henrique e Diego

187 exibições
Tom: Am
Intro: Am G

esconder tablatura
E|---------------------------------------------------------|
B|---------------------------------------------------------|
G|---------------------------------------------------------|
D|---------------------------------------------------------|
A|----3-7---3-7---2-5---2-5---3-7---3-7---2-5---7-7---7-7--|
E|--5-----5-----3-----3-----5-----5-----3------------------|


  Am               C                     G
Gatinha, cê gosta mais de Red Label ou Ice? (2x)
    Am            C                  G
Pra mim tanto faz, ou Red Label ou Ice (2x)

Am
Ice, Ice, Ice
     C
Ice, Ice, Ice
          G
Ice, Ice, Ice
Ice, Ice, Ice (2x)

Am         C              G
Uma Ice só não vai embebedar ninguém
Am              C                    G
Vem dançar forró e a dança do Ice também
             Am             C                  G
Elas gostam mais de Ice, because whisky elas caem (2x)

Am
Ice, Ice, Ice
     C
Ice, Ice, Ice
          G
Ice, Ice, Ice
Ice, Ice, Ice (2x)

(solo) Am G
esconder tablatura
E|---------------------------------------------------------|
B|---------------------------------------------------------|
G|---------------------------------------------------------|
D|---------------------------------------------------------|
A|----3-7---3-7---2-5---2-5---3-7---3-7---2-5---7-7---7-7--|
E|--5-----5-----3-----3-----5-----5-----3------------------|


Am           C             G
Veuve Cliquot custa 500 reais, ou mais
     Am          C                   G
Pra mim tanto faz, ou Red Label ou Ice
             Am         C                      G
Elas gostam mais de Ice, because whisky elas caem (2x)

Am
Ice, Ice, Ice
     C
Ice, Ice, Ice
          G
Ice, Ice, Ice
Ice, Ice, Ice (2x)

(solo) Am G
E|---------------------------------------------------------|
B|---------------------------------------------------------|
G|---------------------------------------------------------|
D|---------------------------------------------------------|
A|----3-7---3-7---2-5---2-5---3-7---3-7---2-5---7-7---7-7--|
E|--5-----5-----3-----3-----5-----5-----3------------------|


Enviada por Sem inscrição
Nº de acordes: 3