Green Day

Lazy Bones

Green Day

17 exibições
Tom: F#m

Intro: 

(Guitarra 2)
E|--5-5-5-5---9--9--9--9--9---------------4-4-4-4--|
B|--7-7-7-7--10-10-10-10-10--12-12-12-12--5-5-5-5--|
G|--6-6-6-6---9--9--9--9--9--11-11-11-11--4-4-4-4--|
D|----------------------------9--9--9--9-----------|
A|-------------------------------------------------|
E|-------------------------------------------------|

repetir a sequência até ´sleep tonight´

Guitarra 1:

F#m   A   Bm   E

F#m
I´m too tired to be bored
     A
I´m too bored to be tired
        Bm
And the silence is so deafening
           E
it´s like picking at a sore
F#m
I´m too mental to go crazy
     A
I´m too drunk too be pure
        Bm
And my mind is playing tricks on me
    E                                    A
And I can´t sleep tonight ´cause I´m so tired,


        F#m
I can´t take it anymore                                  ---> note que a guitarra 1 só entra no refrão
              A
With all the liars
        F#m
Like a prisoner of war
D                  E
I don´t want your sympathy
C#m               F#m
I don´t want your honesty
D               E                 A
I just want to get some peace of mind
D         E
It´s only in my head
  C#m            F#m
As I roll over and play dead
D                E          F#m    A    Bm    E
I don´t want to hear it anymore

(Guitarra 2 repete a Intro)

F#m                         A
It´s good to see you but I really must admit
           Bm                      E
There´s an odor in the air and I think you look like shit...
F#m
I can´t stand from falling down
     A
i´m too sick to throw up
Bm
Everyone keeps talking
          E                                     A
and they can´t shut the fuck up, cause I´m so tired,


        F#m
I can´t take it anymore
              A
With all the liars
        F#m
Like a prisoner of war
D                  E
I don´t want your sympathy
C#m               F#m
I don´t want your honesty
D               E                 A
I just want to get some peace of mind
D         E
It´s only in my head
  C#m            F#m
As I roll over and play dead
D                E          F#m   A    Bm    E
I don´t want to hear it anymore


(Guitarra 2 repete a Intro novamente)


Solo:

(Guitarra 1)
E|----------------------2----------|
B|---3-2------2----------3---------|
G|------4-2----2-4--2h4---4-4-4-4--|
D|--4------2-2---------4----2-2-2--|
A|---------------------------------|
E|---------------------------------|

Solo 2:

(Guitarra 2)
E|-----------5-5-5-5--------5-5-5-5-5--|
B|---------7-7-7-7-7----------7-7-7-7--|
G|--9-9-9-9--6-6-6-6-9-9-9-9--6-6-6-6--|
D|--7-7-7-7----------7-7-7-7-----------|
A|-------------------------------------|
E|-------------------------------------|

(Guitarra 1)
Base do Solo: F#m  A (x2)                  >>Guitarra 2 toca Solo 2 junto à Guitarra 1 tocando a Base do Solo

D                  E
I don´t want your sympathy
C#m               F#m
I don´t want your honesty
D               E                 A
I just want to get some peace of mind
D         E
It´s only in my head
  C#m            F#m
As I roll over and play dead
D              E
I don´t wanna hear about it
C#m            F#m
I don´t wanna scream about it
D                E         F#m
I don´t wanna hear it anymore

F#m    A    Bm    E    F#m

(Guitarra 2 repete novamente a Intro 1x)


Enviada por Méndez
Nº de acordes: 6