Green Day

Homecoming

Green Day

333 exibições
Tom: A
Intro: A(2)   E   D   A(2)    (repeat 2x)

PART I:

Verse 1:
A(2) E      D       A(2)
My heart is beating from me 
A    E         D    A
I am standing all alone 
E(2)        D   A         E      D     A
Please call me only if you are coming home 

   B                    D
E-------------------------------------------------------|
B-----------------------3p2-----3p2-----3p2-----3p2-----|
G--4-4-4-4-4-4-4-4-4---------2-------2-------2-------2--|
D--4-4-4-4-4-4-4-4-4------------------------------------|
A--2-2-2-2-2-2-2-2-2------------------------------------|
E-------------------------------------------------------|
   Waste another        year     flies      by 

   B                     D
E-------------------------------------------------------|
B------------------------3------------------------------|
G--4-4-4-4-4-4-4-4-4-----2------------------------------|
D--4-4-4-4-4-4-4-4-4------------------------------------|
A--2-2-2-2-2-2-2-2-2------------------------------------|
E-------------------------------------------------------|
   Waste a night or     two 

D           A  D     E(2)
You taught me how to live 

A   D   E    A   D   A   D   E    (repeat 2x)

Verse 2:
A              D   E
In the streets of shame 
A                      D      A  D   E(2)
Where you've lost your dreams in the rain 
A              D   E
There's no sign of hope 
A                      D      A  D   E(2)
The stems and seeds of the last of the dope 
A              D   E
There's a glow of light 
A                   D      A  D   E(2)
The St. Jimmy is the spark in the night 
A              D   E
Bearing gifts and trust 
A          D      A   D  E(2)
A fixture in the city of lust


Chorus:

F#               E    A
What the hell's your name?
A              F#          E       A
What's your pleasure what is your pain? 
F#               E    A
Do you dream too much? 
D                     A         E(2)
Do you feel what you need is a crutch 

A   D   E    A   D   A   D   E


Verse 3:
A              D   E
In the crowd of pain. 
A              D      A  D   E(2)
St. Jimmy comes without any shame 
A                          D             E
He says "we're fucked up" but we're not the same 
A                      D      A  D   E(2)
And mom and dad are the ones you can blame 


Chorus 2:
F#         E   A(2)
Jimmy died today 
A(2)             F#     E       A(2)
He blew out his brains into the bay 
F#            E    A(2)
In the state of mind 
D(2)         A      E(2)
Is my own private suicide 


PART II:

Bridge:
(again, the timing is kind of tricky; listen closely to get it right)

A  D  A  G   A   (repeat 4x)

A  D  A  G   A					--\
Well nobody cares   |
  |
A  D  A  G   A					  |  (repeat 2x)
Well nobody cares   |
  |
A  D  A  G   A   A  D  A  G   A			  |
Does anyone care if nobody cares? 		--/


Verse:
D(o)                 G(o)   D(o)                 
Jesus filling out paperwork now 
G(o)               A(o)
At the facility on East 12th st. 
D(o)                 G(o)   D(o) 
He's not listening to a word now 
G(o)
He's in his own world 
A(o)
And he's daydreaming 
D(o)                   G(o)   D(o) 
He'd rather be doing something else now
G(o)                                A(o)
Like cigarettes and coffee with the under belly
D(o)                      G(o)   D(o)
His life's on the line with anxiety now 
G(o)
And she had enough 
A(o)               D
And he had plenty
   D
E------------------------|
B--7--7-7-7--8--7--5--7--|
G--7--7-7-7--7--7--7--7--|
D--7--7-7-7--7--7--7--7--|
A--5--5-5-5--5--5--5--5--|
E------------------------|

D            A   G  A   D
Somebody get me out of here 

   D
E------------------------|
B--7--7-7-7--8--7--5--7--|
G--7--7-7-7--7--7--7--7--|
D--7--7-7-7--7--7--7--7--|
A--5--5-5-5--5--5--5--5--|
E------------------------|

D           A   G  A   D
Anybody get me out of here 

   D
E------------------------|
B--7--7-7-7--8--7--5--7--|
G--7--7-7-7--7--7--7--7--|
D--7--7-7-7--7--7--7--7--|
A--5--5-5-5--5--5--5--5--|
E------------------------|

D            A   G  A   D
Somebody get me out of here 

   D
E------------------------|
B--7--7-7-7--8--7--5--7--|
G--7--7-7-7--7--7--7--7--|
D--7--7-7-7--7--7--7--7--|
A--5--5-5-5--5--5--5--5--|
E------------------------|

D                  A   G  A   D
Get me the fuck right out of here 


C            A(2)
So far away 
A(2)                 C
I don't want to stay 
C                        A(2)
Get me out of here right now 
C                 A(2)
Just wanna be free 
A(2)         
Is there a responsibility 
C                        A(2)
Get me out of here right now 

E-----------------5-5-5-----------------5/9-9-9--|
B--5-5-5-5-5-5-5---------5-5-5-5-5-5-5-----------|
G------------------------------------------------|  (repeat 2x)
D------------------------------------------------|
A------------------------------------------------|
E------------------------------------------------|

   D    C   G   A    D                          G A  D
E--10---8---3---5---------------------------------------|
B--10---8---3---5---------------------------------------|
G-------------------------------------------------------|
D--------------------7--7--7-------------------------7--|
A--------------------5--5--5--------------------5-7--5--|
E-----------------------------------------------3-5-----|
                    This lifelike dream         ain't for me 
D

Part III:
(keep strumming D for awhile; it sounds like Billie is using a flange effect)
D          A         G            A
I fell asleep while watching Spike TV 
      D          A
After 10 cups of coffee 
          G         A
And your still not here 
D             A
Dreaming of a song 
     G             A
But something went wrong 
        D          A
And you can't tell anyone 
       G         A
'Cause no one's here
G              A
Left me here alone 
         G             A
And I should've stayed home 
      B          Db
After 10 cups of coffee 
      D
I'm thinking where'd you go 
D         A
Nobody likes you 
G             A
Everyone left you 
D               A
They're all out without you 
G      A
Havin' fun 
A
Where'd you go?

D         A
Everyone left you 
G             A
Nobody likes you 
D               A
They're all out without you 
G      A
Havin' fun 
A        (no chords)
Where'd you go?



Part IV:
(apparently written and sung by Tre)
Intro: 
D   E(2)
Geez...ha...

Verse:
(has a blues-y feel to the rhythm; the pattern is a standard blues riff in A)
A
I got a rock and roll band 
D
I got a rock and roll life 
A
I got a rock and roll girlfriend 
E(2)
And another ex-wife
A
I got a rock and roll house 
D
I got a rock and roll car 
A
I play the shit out the drums 
E(2)
And I can play the guitar 
A
I got a kid in New York 
D
I got a kid in the bay 
A
I haven't drank or smoked nothin' 
E(2)
In over 22 days 
       G      A
So get off my case
 G        A
Off of my case
 G        A
Off of my case
D


Part V:
(very tricky rhythm here; listen closely to the timing)
D  B  G  A  (play 4x)

D                        B
Here they come marching down the street 
D                  B            G    A
Like a desperation murmur of a heartbeat 
D                     B
Coming back from the edge of town 
G                 A     G  A
Underneath their feet 
D                          B
The time has come and it's going nowhere 
D                       B       G    A
Nobody ever said that life was fair now 
D                               B 
Go-carts and guns are treasures they will bear 
G              A     D  A
In the summer heat 
G               A
The world is spinning
G
Round and round
          A       D  A
Out of control again 
G          A          D               E(2)
From the 7-11 to the fear of breaking down 
   D        G      A
So send my love a letterbomb 
    D      G    A
And visit me in hell 
G         A    D
We're the ones going


PART VI:
D   A

D                 A
Home We're coming home again 
D                 A
Home We're coming home again 
G
I started fuckin' running 
               D
As soon as my feet touched ground 
G
We're back in barrio 
        A
And to you and me, that's jingle town
        D                 A
That's home We're coming home again
D                 A
Home We're coming home again 
D                 A
Home We're coming home again 
D                 A
Home We're coming home again 

   D                          G        A                          G
E--------------------------------------------------------------------------
B--------------------------------------------------------------------------
G--7--7-7-7-7--7-7-7-7--7-7-7----------------------------------------------  (play 4x)
D--7--7-7-7-7--7-7-7-7--7-7-7-5-5-5-5--7--7-7-7-7--7-7-7-7--7-7-7-5-5-5-5--
A--5--5-5-5-5--5-5-5-5--5-5-5-5-5-5-5--7--7-7-7-7--7-7-7-7--7-7-7-5-5-5-5--
E-----------------------------3-3-3-3--5--5-5-5-5--5-5-5-5--5-5-5-3-3-3-3--
   Home                                We're coming home again 


Outro:
(play a "D" chord and let it ring over the "nobody likes you" voice)
Nobody likes you
Everyone left you
They're all out with out you
Havin' fun...


Enviada por Sem inscrição
Nº de acordes: 10