Green Day

Hearts Collide

Green Day

10 exibições
Tom: A

Tuning: Standard

VERSE 1

e|--------------------------------------|
B|--------------------------------------|
G|--4-4-4-4-----------------------------| 
D|--4-4-4-4--6-6-6-6--2-2-2-2--4-4-4-4--| X2
A|--2-2-2-2--6-6-6-6--2-2-2-2--4-4-4-4--|
E|-----------4-4-4-4--0-0-0-0--2-2-2-2--|



PRE-CHORUS 1

e|--------------------------------|
B|--------------------------------|
G|--------------------4-----4-----|
D|--2-2-2-2--4-4-4-4--4--4--4--4--| X2
A|--2-2-2-2--4-4-4-4--2--4--2--4--|
E|--0-0-0-0--2-2-2-2-----2-----2--|



VERSE 2

e|--------------------------------------|
B|--------------------------------------|
G|--4-4-4-4-----------------------------| 
D|--4-4-4-4--6-6-6-6--2-2-2-2--4-4-4-4--| X2
A|--2-2-2-2--6-6-6-6--2-2-2-2--4-4-4-4--|
E|-----------4-4-4-4--0-0-0-0--2-2-2-2--|



PRE-CHORUS 2

e|--------------------------------|
B|--------------------------------|
G|--------------------4-----4-----|
D|--2-2-2-2--4-4-4-4--4--4--4--4--| X2
A|--2-2-2-2--4-4-4-4--2--4--2--4--|
E|--0-0-0-0--2-2-2-2-----2-----2--|



CHORUS 1

e|---------------------------------------------------------------------------|
B|-------2----------2----------2---------------------------------------------|
G|--4-4--2--2--4-4--2--2--4-4--2--2------------------------------------------|
D|--4-4--0--2--4-4--0--2--4-4--0--2--4-4-4-4---------------------------------|
A|--2-2-----0--2-2-----0--2-2-----0--4-4-4-4---------------------------------|
E|-----------------------------------2-2-2-2---------------------------------|



SOLO

e|--------------------------------------|
B|--------------------------------------|
G|--4-4-4-4-----------------------------| 
D|--4-4-4-4--6-6-6-6--2-2-2-2--4-4-4-4--| X2
A|--2-2-2-2--6-6-6-6--2-2-2-2--4-4-4-4--|
E|-----------4-4-4-4--0-0-0-0--2-2-2-2--|



PRE-CHORUS 3

e|--------------------------------|
B|--------------------------------|
G|--------------------4-----4-----|
D|--2-2-2-2--4-4-4-4--4--4--4--4--| X2
A|--2-2-2-2--4-4-4-4--2--4--2--4--|
E|--0-0-0-0--2-2-2-2-----2-----2--|



CHORUS 2 + OUTRO

e|---------------------------------------------------------------------------|
B|-------2----------2----------2---------------------------------------------|
G|--4-4--2--2--4-4--2--2--4-4--2--2------------------------------------------|
D|--4-4--0--2--4-4--0--2--4-4--0--2--4-4-4-4---------------------------------| X4
A|--2-2-----0--2-2-----0--2-2-----0--4-4-4-4---------------------------------|
E|-----------------------------------2-2-2-2---------------------------------|



END ON

e|-----|
B|-----|
G|--4--|
D|--4--|
A|--2--|
E|-----|



| /  slide up
| \  slide down

| h  hammer-on
| p  pull-off

| ~  vibrato
| +  harmonic
| x  Mute note



Enviada por Méndez
Nº de acordes: 1