Sem imagem

Pra Mim Você Não

Envydust

293 exibições
Música eh em dó, mais montei a tab em Mi mesmo

Base da Música eh G#, A#, C


-----Intro------- (eh quase igual isso ae, alias, ta bem proximo xD)


Guitarra Limpa tipo dedilhando ou com distorção fazendo Palm Muting

 e|----------------------------------------------------------------
 B|----------------------------------------------------------------
 G|-----5-----7-----8-----7-----5----------8-7h8h7-----8-7h8h7-----
 D|------------------------------------6-6---------8-8-------------
 A|-3-3---3-3---3-3---3-3---3-3---3-3------------------------------
 E|----------------------------------------------------------------


 e|----------------------------------------------------------------
 B|----------------------------------------------------------------
 G|-----5-----7-----8-----7-----5----------10-----8-----7---8-7h8h7
 D|------------------------------------6-6----6-6---6-6---8--------
 A|-3-3---3-3---3-3---3-3---3-3---3-3------------------------------
 E|----------------------------------------------------------------


Enviada por Sem inscrição
Nº de acordes: 3