Dave Van Ronk

Green Green Rocky Road

Dave Van Ronk

21 exibições
Capotraste 5ª casa

E|----------------|--0---2---------|----------------|--0-------------|----------------|--0---2---------|
B|------3---------|3---------------|------3---------|3-----3---------|------3---------|3---------------|
G|2-4---------4-2-|----------------|2-4---------4-2-|----------------|2-4-------0-4-2-|----------------|
D|----0-------0---|----0-------0---|----0-------0---|----0-------0---|----0-------0---|----0-------0---|
A|----------------|----------------|----------------|----------------|----------------|----------------|
D|0-------0-------|0-------0-------|0-------0-------|5-------0-------|0-------0-------|0-------0-------|


E|----------------|--0-------------|--0-----2-------|---------3s5---5-|--------3-0---2-|----2-----0------|
B|--------3-------|3-----3---------|--3-----3-------|--3--------------|--------0-----3-|----3-----3------|
G|2---4-------4-2-|----------------|--2-----------2-|-----------------|----------------|-----------------|
D|----0-------0---|----0-------0---|----0-------0---|----0--------0---|----0-------0---|----0-------0----|
A|----------------|----------------|----------------|-----------------|----------------|-----------------|
D|0-------0-------|5-------0-------|0-------0-------|0--------0-------|0-------5-------|0-------0--------|


E|2---3s5-3-0---2-|----2-----0-----|2---------------0|--2---------0-----|----------0-----|2---------------|
B|3-------0-----3-|----3-----3-----|3---3----------3-|-----------3----3-|----------3-----|3---------------|
G|----------------|----------------|------2-----2-4--|--------2-4-------|----------------|----------------|
D|----0-------0---|----0-------0---|----0-------0----|----0---------0---|----0-------0---|----0-------0---|
A|----------------|----------------|-----------------|------------------|----------------|----------------|
D|0-------5-------|0-------0-------|0-------0--------|0-------0---------|0-------0-------|0-------0-------|


Enviada por Sem inscrição
Nº de acordes: 0