Sem imagem

Salvaje

Carajo

69 exibições
intro (limpio kon un toke de flanger suena bien)
D-----------------------------------------
A-----------------------------------------
F----------------------------------------- x4
C-----------------------------4----4------
G-------------------------------5---------
C-----4----4-/-7----7----0----------------

distorsion
D-----------------------------------------
A-----------------------------------------
F-----------------------------------------
C-----4-4-4-4-4--7-7--9-9-9-9-9--7-7-7---- x6
G-----4-4-4-4-4--7-7--9-9-9-9-9--7-7-7----
C-----4-4-4-4-4--7-7--9-9-9-9-9--7-7-7----

versos (limpio)
D-----------------------------------------
A-----------------------------------------
F----------------------------------------- x4
C-------4----4-----7---7------------------
G---------4---4-0---6----6----------------
C-----4-----------------------------------

coro
D-----------------------------------------
A-----------------------------------------
F----------------------------------------- x4
C-----4-4-4-4-4--7-7--9-9-9-9-9--7-7-7----
G-----4-4-4-4-4--7-7--9-9-9-9-9--7-7-7----
C-----4-4-4-4-4--7-7--9-9-9-9-9--7-7-7----

versos (limpio)
D-----------------------------------------
A-----------------------------------------
F----------------------------------------- x4
C-------4----4-----7---7------------------
G---------4---4-0---6----6----------------
C-----4-----------------------------------

coro
D-----------------------------------------
A---------------------0-0-0-0-0-----------
F---------------------0-0-0-0-0-----------
C-----4-4-4-4-4--7-7--0-0-0-0-0--7-7-7----
G-----4-4-4-4-4--7-7-------------5-5-5----
C-----4-4-4-4-4--7-7-------------6-6-6----
 x4
D-----------------------------------------
A-----------------------------------------
F-----------------------------------------
C-----4-4-4-4-4--7-7--9-9-9-9-9--7-7-7----
G-----4-4-4-4-4--7-7--9-9-9-9-9--7-7-7----
C-----4-4-4-4-4--7-7--9-9-9-9-9--7-7-7----

puente
D-----------------------------------------
A-----------------------------------------
F----------------------------------------- x4
C-----4-4-4--7-7-7-7--9-9-9-9--12-12-12---
G-----4-4-4--7-7-7-7--9-9-9-9--12-12-12---
C-----4-4-4--7-7-7-7--9-9-9-9--12-12-12---

ultimo verso
D----------------------------------------------------------
A----------------------------------------------------------
F----------------------------------------------------------
C---4-4-4-4-4-4-7-7-7-7-7-7-9-9-9-9-9-9-12-12-12-12-12-12--
G---4-4-4-4-4-4-7-7-7-7-7-7-9-9-9-9-9-9-12-12-12-12-12-12--
C---4-4-4-4-4-4-7-7-7-7-7-7-9-9-9-9-9-9-12-12-12-12-12-12--
x2
D--------------------------------------------------------
A--------------------------------------------------------
F--------------------------------------------------------
C---4-4-4-4-4-4-7-7-7-7-7-7-0-0-0-0-0-0-2-2-2-2-2-2------ 
G---4-4-4-4-4-4-7-7-7-7-7-7-0-0-0-0-0-0-2-2-2-2-2-2------
C---4-4-4-4-4-4-7-7-7-7-7-7-0-0-0-0-0-0-2-2-2-2-2-2------

D------------------------------
A------------------------------
F------------------------------
C---4-4-4-4-4-4-7-7-7-7-7-7--0- 
G---4-4-4-4-4-4-7-7-7-7-7-7--0-
C---4-4-4-4-4-4-7-7-7-7-7-7--0-

coro
D-----------------------------------------
A-----------------------------------------
F-----------------------------------------
C-----4-4-4-4-4--7-7--0-0-0-0-0--7-7-7----
G-----4-4-4-4-4--7-7--0-0-0-0-0--5-5-5----
C-----4-4-4-4-4--7-7--0-0-0-0-0--6-6-6----
 x4
D-----------------------------------------
A-----------------------------------------
F-----------------------------------------
C-----4-4-4-4-4--7-7--9-9-9-9-9--7-7-7----
G-----4-4-4-4-4--7-7--9-9-9-9-9--7-7-7----
C-----4-4-4-4-4--7-7--9-9-9-9-9--7-7-7----

D-----------------------------------------
A-----------------------------------------
F----------------------------------------- x4
C-----4-4-4--7-7-7-7--9-9-9-9--12-12-12---
G-----4-4-4--7-7-7-7--9-9-9-9--12-12-12---
C-----4-4-4--7-7-7-7--9-9-9-9--12-12-12---

CARAJO - SALVAJE

si la calle te pario, caminamos igual
y pretendemos lo ideal, en este mundo efimero
de nada me arrepentire, si lo hago convencido
porque el placer de vivir, esta en lo que uno elige

la inocencia que perdi, se tranformo en coraje
y los palos de la vida, nos hacen ser
cada vez mas fuertes y mas descreidos
de que la justicia existe...

se muy bien de donde vengo pero no se a donde voy,
avanzando por instinto, estallado de pasion
se muy bien de donde vengo pero no se a donde voy,
avanzando por instinto, estallado de pasion

de pasion

si la calle te pario, sabes de lo que hablo
en la esquina se escribio, el libro de mi barrio
resistiendome a perder aquella adolescencia que
dentro mio llevare, a donde mierda sea

se muy bien de donde vengo pero no se a donde voy,
avanzando por instinto, estallado de pasion
se muy bien de donde vengo pero no se a donde voy,
avanzando por instinto, estallado de pasion

de pasion


Enviada por Sem inscrição
Nº de acordes: 0