Sem imagem

Sácate La Mierda

Carajo

164 exibições
riff_1:
    Gm                      A#
E||-------------------------------------------------|
B||-------------------------------------------------|
G||-12-12-12-12-------------------------------------|
D||-------------12-12-12-12-13-13-13-13-10-10-10-10-|
A||-------------------------------------------------|
D||-------------------------------------------------|
    D#
E||-------------------------------------------------|
B||-------------------------------------------------|
G||-12-12-12-12-------------------------------------|
D||-------------12-12-12-12-13-13-13-13-10-10-10-10-|
A||-------------------------------------------------|
D||-------------------------------------------------|

supongo que se toca todo con armonicos, (o algun efecto que no conozco) aunque
no logro que suene limpio en mi guitarra, ni en esta ni otras posiciones.
los acordes que puse no se oyen en la grabacion, pero los podes tocar siguiendo el bajo 
para que suene mas lleno o bien que los toque una segunda guitarra


riff_2:

     G5 F5      G5 D5
E||-----------------------||
B||-----------------------||
G||-----------------------||
D||--5--3--3-3--5--0-0-0--||
A||--5--3--3-3--5--0-0-0--||
D||--5--3--3-3--5--0-0-0--||

estribillo:

G5           F5 F/D#         F5     D5    D5-G5-D5   F5                    
 dejando escapar,   todo el odio que va...           pudriendo nuestra fe

los acordes: 
	    G5:555xxx
	    F5:333xxx
	    F/D#:133xxx
	    D5:000xxx


melodia: (despues del primer estribillo)

	E||----------------------------------||
	B||-------4--/6--4-3-4-3--4----------||
	G||--3--3-------------------3-6-3----||
	D||----------------------------------||
	A||----------------------------------||
	D||----------------------------------||

riff_1
riff_2
estribillo

riff_3:
      G5                      
E||----------------------|----|
B||----------------------|----|
G||----------------------|----|
D||---5-5--x-x--5--5-5---|-X4-|
A||---5-5--x-x--5--5-5---|----|
D||---5-5--x-x--5--5-5---|----|
                             
melodia_2:

     Gm          Am          A#
E||---------------------------------------------||
B||----3---3---3---6---6---6---8---8---6-9-- 8--||
G||--6---6---6---8---8---8---9---9---9-----9----||
D||---------------------------------------------||
A||---------------------------------------------||
D||---------------------------------------------||

estribillo
riff_3

riff_4:

  B5               
E||-------------------|----|-------|
B||-------------------|----|-------|
G||--4-4--x-x-4--4-4--|----|--4-4--|
D||--4-4--x-x-4--4-4--|-X3-|--4-4--|
A||--2-2--x-x-2--2-2--|----|--2-2--|
D||-------------------|----|-------|


Enviada por Sem inscrição
Nº de acordes: 10