Sem imagem

Mal Popular

Carajo

63 exibições
Intro & pre-Verso:

C-------------------------------------------------------------------------------------------------------------------------------
G-------------------------------------------------------------------------------------------------------------------------------
Eb--------------------------------------------------------------------------------------------------------------------------------
Bb--------------------------------------------------------------------------------------------------------------------------------
F------------------------------3--4---3--0-1----------------------------------------3-4-3----66------------------------------
Bb----1/0/1/0/1/0/1/0------3--4---3--0-1---------1/0/1/0/1/0/1/0-------------3-4-3----66-------------------------------

Verso: 
------------------------------------------------0-------------------------------------------------------------------------------
------------------------------------------------3-------------------------------------------------------------------------------
------------------------------------------------2--------------------------------------------------------------------------------
------------------0-0-------------------0-0---0-----------------------0-0----------------------------------------------------
------1-0--0-1--0-0-------1-0--0-1--0-0----------------1-0--0-1--0-0-----------------------------3-4-3--66------------
------1/0--0-1--0-0-------1/0--0-1--0-0----------------1/0--0-1--0-0-----------1/0--0-1-0------3-4-3--66------------
UN PAÍS QUE NO PUEDE TERMINAR CON SU MAL......

Estribillo:                                                                                     
-------------------------------------------------------------------------------------------------------------------------------
-------------------------------------------------------------------------------------------------------------------------------
------7-----3---------------------------------------3-------------------------------------------------3----7----------------------
------7-----3--------5--------1-------------0-----3--------5---------1------------------------0----3----5---------------------
------5-----1--------5--------1-------------0-----1--------5---------1------------------------0----1----5-----------------------
----------------------5--------1-------------0--------------5---------1------------------------0----------5--------------------
CUANDO LA JUSTICIA YA DEJE DE SER TAN CIEGA Y VEA AL PUEBLO!                  (VIENDO AL PUEBLO LLORARÁ!)


Solo c/flanger o phaser (hay más notas armónicas en la primera cuerda)
-------------------------------------------------------------------------------------------------------------------------------
-----10-10-8-8-8----10/810-10-11-----8-10-10-8--8-8-----81011-11-11-----------------------------------------
--------------------------------------------------------------------------------------------------------------------------------
--------------------------------------------------------------------------------------------------------------------------------
------------------------------------------------------------------------------------------------------------------------------
--------------------------------------------------------------------------------------------------------------------------------


Enviada por Sem inscrição
Nº de acordes: 0