Bruno e Marrone

Na Conta Da Loucura

Bruno e Marrone

7 exibições
Tom: Bm
Intro: Bm  A  D  E4  E  G

E|----------------------------------------------------|
B|----------------------------------------------------|
G|----------------------7/6--4-------7/6--4-----------|
D|--7/9~--4-4/7-7/9-9~---------7-7----------7-7/9--7--|
A|----------------------------------------------------|
E|----------------------------------------------------|

E|----------------------------------------------------|
B|-----------------------3----------------------------|
G|------------------------------7---------------------|
D|--7h9p7/6-6----2-4-5-----5/9------------------------|
A|----------------------------------------------------|
E|----------------------------------------------------|


 Bm
Gosto,das suas mãos atrevidas
       A            D
Desse seu olhar maldoso suas frases
provocantes
                    E4    E
Desse jogo corpo a corpo uô uô uô
   G
Você é o defeito que eu gosto de ter
Se for pra errar tem que ser com você

  Bm
Quero, sua cama passageira
    A         D
A sua temperatura traz a loucura pro quarto
                  E4
Deixa a razão na rua
                   E
Temos uma noite inteira
              G        A
Pra fazer o que quiser

                   G
Conte mais uma mentira
         A
Que sou diferente
        Bm
Que gosta da gente, eu vou acreditar
     G
Relaxa
                                        A
Não precisa estar nem aqui quando eu acordar

                G                      A
Põe mais uma noite aí na conta da loucura
          Bm                         A
Hoje o desejo é quem vai levar a culpa
                G                  A
Do cabelo bagunçado, perfume misturado
                Bm
Meus olhos passeando no teu corpo todo

                G      A
Coração nem precisa saber
                      Bm
Que hoje eu to com você
                G      A
Coração nem precisa saber
                      Bm
Que hoje eu to com você

( Bm  A  D  E4  E )

                   G
Conte mais uma mentira
           A
Que sou diferente
        Bm
Que gosta da gente, eu vou acreditar
   G
Relaxa
                                       A
Não precisa estar nem aqui quando eu acordar

               G                       A
Põe mais uma noite aí na conta da loucura
          Bm                       A
Hoje o desejo é quem vai levar a culpa
                G                  A
Do cabelo bagunçado, perfume misturado
                Bm
Meus olhos passeando no teu corpo todo

                G      A
Coração nem precisa saber
                      Bm
Que hoje eu to com você
                G      A
Coração nem precisa saber
                      Bm
Que hoje eu to com você


Enviada por Sem inscrição
Nº de acordes: 6