Sem imagem

Becoming The Bull

Atreyu

157 exibições
||------------|
||------------|
||------------| 
||------------|
||------------|
||-x-15\------|

INTRO

||------------------------------------|
||------------------------------------|
||------------------------------------|(3x)
||----------------7-6-----------------|
||------8p5---5h8-------8---10p8------|
||--0-0--------------------------10p8-|
    - -   

||------------------------------------|
||------------------------------------|
||------------------------------------|(1x)
||----------------7-000003~------|
||------8p5---5h8---000003~------|
||--0-0-------------000003~------|
    - -             -----
COME ON!

||------------------------------------|
||------------------------------------|
||------------------------------------|(3x)
||----------------7-6-----------------|
||------8p5---5h8-------8---10p8------|
||--0-0--------------------------10p8-|
    - -   

||------------------------------------|
||------------------------------------|
||------------------------------------|(1x)
||----------------7-00000---------|
||------8p5---5h8---00000---------|
||--0-0-------------000003~------|
    - -             -----PH

Singing starts - VERSE

||------------------------------------|
||------------------------------------|
||------------------------------------|(3x)
||----------------7-6-----------------|
||------8p5---5h8-------8---10p8------|
||--0-0--------------------------10p8-|
    - -   

||------------------------------------|
||------------------------------------|
||------------------------------------|(1x)
||----------------7-000003~------|
||------8p5---5h8---000003~------|
||--0-0-------------000003~------|
    - -             -----

||------------------------------------|
||------------------------------------|
||------------------------------------|(4x)
||----------------7-6-----------------|
||------8p5---5h8-------8---10p8------|
||--0-0--------------------------10p8-|
    - -   

Pre-Chorus

||------------------------------------|
||------------------------------------|
||------------------------------------|
||------------------------------------|
||------------------------------7777--|
||--8-5-0--8-5-0--8-5-0--8-5-0--7777--|
    |_|_|  |_|_|  |_|_|  |_|_|  ----

CHORUS

||----------------------------------------------------|
||----------------------------------------------------|
||----------------------------------------------------|
||----------------------------------------------------|
||----------------------------------------------------|
||-8888-0000-10101010-8888-8888-0000-1010101010101010-|
    
||----------------------------------------------------|
||----------------------------------------------------|
||----------------------------------------------------|
||----------------------------------------------------|
||----------------------------------------------------| 
||-8888-0000-10101010-8888 8888-0000-1010101010101010-| (10, not 1 0)

VERSE
 
||------------------------------------|
||------------------------------------|
||------------------------------------|(1x)
||----------------7-6-----------------|
||------8p5---5h8-------8---10p8------|
||--0-0--------------------------10p8-|
    - -   

||-------------------------------|
||-------------------------------|
||-------------------------------|(1x)
||----------------7-000003~------|
||------8p5---5h8---000003~------|
||--0-0-------------000003~------|
    - -             -----


BREAKDOWN (Kinda)

||-------------------------------------|
||-------------------------------------|
||-------------------------------------| 
||---------------------------000003~---| (5x) (2nd, 3rd & 4th time, play 
||---------------------------000003~---|        play over the top of the 
||-00-00-0-00-00-00-00-0-00--000003~---|           verse) (Next part)
   -- -- - -- -- -- -- - --  -----

||------------------------------------|
||------------------------------------|
||------------------------------------|(3x)
||----------------7-6-----------------|
||------8p5---5h8-------8---10p8------|
||--0-0--------------------------10p8-|
    - -   

||----------------------------|
||----------------------------|
||----------------------------|(1x)
||----------------7-7777------|
||------8p5---5h8---7777------|
||--0-0-------------7777------|
    - -             ----


Pre-Chorus

||------------------------------------|
||------------------------------------|
||------------------------------------|
||------------------------------------|
||------------------------------7777--|
||--8-5-0--8-5-0--8-5-0--8-5-0--7777--|
    |_|_|  |_|_|  |_|_|  |_|_|  ----


CHORUS

||----------------------------------------------------|
||----------------------------------------------------|
||----------------------------------------------------|
||----------------------------------------------------|
||----------------------------------------------------|
||-8888-0000-10101010-8888-8888-0000-1010101010101010-|
    
||----------------------------------------------------|
||----------------------------------------------------|
||----------------------------------------------------|
||----------------------------------------------------|
||----------------------------------------------------| 
||-8888-0000-10101010-8888 8888-0000-1010101010101010-| (10, not 1 0)


Enviada por Sem inscrição
Nº de acordes: 0