Athlete

I Love

Athlete

79 exibições
Intro/Verse

  D				   A
e|------------------------------------------------------------------|
B|-----------------------10--10--------------------------5---5------|
G|----11----11----11--------------------------------6---------------|
D|--12----12----12----12---12-----------7-----7--------7---7--------|
A|------12----12----12----------------7-----7-----7-----------------|
E|10--------------------------------5-----5-----5-------------------|

Chorus

  D            B            A                   A  B
e|----------------------------------------------x--x----------------|
B|----------------------------------------------x--x----------------|
G|----11----11------8----8-------6----6----6----6--8----------------|
D|--------12-----------8------------7----7------7--9----------------|
A|--12--12-------9---9--------7---7----7-----7--7--9----------------|
E|10-----------7------------5-------------------5--7----------------|

Bridge

  D	 B	A	B
e|------------------------------------------------------------------|
B|------------------------------------------------------------------|
G|----11------8------6------8---------------------------------------|
D|----12------9------7------9---x2----------------------------------|
A|--12------9------7------9-----------------------------------------|
E|10------7------5------7-------------------------------------------|

      D	      B	     A           B           D           B
e|------------------------------------------------------------------|
B|------------------------------------------------------------------|
G|--------11------8--------6-----------8-----------11----------8----|
D|then----12------9------7---7-------9---9-------12--12------9---9--|
A|------12------9------7-------7---9-------9---12------12--9--------|
E|----10------7------5-----------7-----------10----------7----------|

One more thing - You must see Athlete live before you die. Put it on your list

| /  slide up
| \  slide down
| h  hammer-on
| p  pull-off
| ~  vibrato
| +  harmonic
| x  Mute note
=============================================================================


Enviada por Sem inscrição
Nº de acordes: 6