Turma do Pagode

Da Cor Do Pecado

Turma do Pagode

463 exibições
Tom: Eb

Obs: Este solo de violão é executado no fim do laia.

e | -2h3 3------------------- |  e | -2h3 3---------- | 
B | -------4-2---1/3--------- |  B | -------4-2------ | 
G | -----------3------------- |  G | -----------3---- | 
D | ------------------------- |  D | ---------------- | 
A | ------------------------- |  A | ---------------- | 
E | ------------------------- |  E | ---------------- | 

Eb6/9    %         Ab7M   Eb6/9   %        Ab7M C7M % Bb7/4
   Lalaia Lalaia Laiá      Lalaia Lalaia Laiá  

e | ---------------------- |  
B | -1/3----------1/3----- |  
G | -----5-3-2--------5--- | 
D | -----------3---------- | 
A | ---------------------- | 
E | ---------------------- | 

 Eb6/9                 Ab7M  Eb6/9                     Ab7M
  É paixão queima pra valer   Meu coração dispara ao te ver
  Cm          Gm     Ab7M         %    G7 Bb7    
  Sou mais eu quando estou ao seu lado 
  Cm          Gm            Ab7M  G7
  Já não vivo se for sem você
 

  Cm              Gm       Ab7M  G7 Bb7 
  Nosso amor é da cor do pecado
  Cm       Gm   Ab7M        %   Bb7
  Nosso beijo é mais que prazer
  Eb6/9            Bb7
  Tá em nós...     Tá no ar... 
  Ab7M         %      Bb7/4    Bb7
  Tá na terra  no mar nas estrelas
  Eb6/9              Bb7    
  Nosso amor vive em paz
  Ab7M      %           Bb7/4    Bb7
  Mas posso enlouquecer se perde-la
  Eb6/9   %         Ab7M
  Lalaia  Lalaia Laiá
  Eb6/9   %         Ab7M  C7M % Bb7/4
  Lalaia  Lalaia Laiá


Enviada por Sem inscrição
Nº de acordes: 9