Raça Negra

Vida Cigana

Raça Negra

5.004 exibições
Intro:   Solo dedilhado + G Am C D7
 Solo int.: 

 Am          Am            D    D                             Am
|---------------------7-5----------10-10-10-8-8-7-7-------7-7-8------|
|-------------------5-----8-8-7-7-------------------10-10------------|
|-------------4-5-7---------------------------------------------9----|
|-----------7--------------------------------------------------------|
|---------7----------------------------------------------------------|
|-0-5-7-9------------------------------------------------------------|


   D                                                  
|-10-8-7-8-7--------------------------------------------------|
|------------10-8-7---------------------7--------------5------|
|-------------------9-7--------------------------4-5-7---7----|
|-----------------------10-9-7-9-7---------4-5-7--------------|
|----------------------------------10-9-----------------------|
|-------------------------------------------------------------|

G          Am           Bm
Oh meu amor, não fique triste
         C                     G
Saudade existe pra quem sabe ter
             Am                    Bm
Minha vida cigana me afastou de você
           C                       F
Por algum tempo eu vou ter que viver
      D          G
Por aqui, longe de você
Em              Am    Bm   C          G
Longe dos seu carinho e do seu olhar
           Am                 Bm
Que me acompanha já tem muito tempo
          C              G
Penso em você a cada momento
           Am                 Bm
Sou água de rio que vai para o mar
           C                   F
Sou nuvem nova que vem pra molhar
      D             G
Essa noiva que é você
Em            Am    
Pra mim você é linda
 Bm      C         G                    
A dona do meu coração
         Am              Bm
Que bate tanto quando te vê
       C                   G
É a verdade que me faz viver
G         Am               Bm
O meu coração bate tanto quando te vê
      C                   G
É a verdade que me faz viver
Solo ( G Bm C D )4 X

Repetir Tudo
G         Am               Bm
O meu coração bate tanto quando te vê
      C                   G
É a verdade que me faz viver..............(Várias Vezes pra terminar)


Enviada por romeu
Nº de acordes: 8